Guitaretab - guitar tabs
Song name
# A B C D E F G H I J K L M N O P Q R S T U V W X Y Z

Melly Goeslaw - Bagaikan Langit tab

Artist: Melly Goeslaw
Album : Unknown
Title: Bagaikan Langit
Tabbed By: Gmaster / azz_amit@yahoo.com.my
Tuning: standard
This song is pretty cute, and easy too...^_^

intro
--------|
--------|
--------|
-2------|
-2-~----|LET RING
-0------|

VERSE
-5---5---7---7---4---4---4---4---|
-5---5---7---7---4---4---5---5---|
-6---6---8---8---4---4---6---6---|
-7---7---9---9---6---6---6---6---|
---------------------------------|
---------------------------------|

-5---5---7---7---4---4---4-4-4---|
-5---5---7---7---4---4---5-4-5---|
-6---6---8---8---4---4---6-6-6---|
-7---7---9---9---6---6---6-6-6---|
---------------------------------|
---------------------------------|
PLAY WITH A LITTLE SKA-LIKE UPSTROKES.
[ Tab from: http://www.guitaretab.com/m/melly-goeslaw/93230.html ]
CHORUS
--------------------------------------|
--------------------------------------|
----4-2--0---2-0----------------------|
------------------4---7-5--4---5-4--2-|
-----------3--------5--------2--------|
--3-----------------------------------|

--------------------------------------------------------|
--------------------------------------------------------|
----4-2--0---2-0-------------------------4-2-4-2-4-0-2--|
------------------4---7-5--4----5-4--2------------------|
-----------3--------5---------2-------------------------|
--0------------------------------------0----------------|

BRIDGE
all that I know it was played in A G F#m A

solo
in the song,the solo played with whammy bar..
Em A D C Bm x2

------------------------------7-7-/8---3-/7-\5--5/10-5/8--\7-------|
-//8-/10--5-/8-\7--7/12-7/10-\8-8-/10--5-/8-\7--7/12-7/10-\8-------|
-------------------------------------------------------------------|
-------------------------------------------------------------------|
-------------------------------------------------------------------|
-------------------------------------------------------------------|

post-solo
play Em C D Bm twice with palm mute...

vote for this pleasee...
Related for Bagaikan Langit tab
Advertisement will be closed in 10 seconds