Song name
# A B C D E F G H I J K L M N O P Q R S T U V W X Y Z

Melody Fall - Frenkie tab

Song: Frenkie
Artist: Melody Fall
Album: Melody fall EP
Tabbed by: Fede90
Email: coolboy_90@hotmail.it


Standard Tuning

Pre-INTRO  
(Guitar I)

e|---------------------------------------------------------------------------|
B|---------------------------------------------------------------------------|
G|--7----7----7h9--7----7----7h9--7---7----7h9-7---7----7h9------------------|
D|----7----7---------7----7---------7---7--------7---7-----------------------| 
A|---------------------------------------------------------------------------|
E|---------------------------------------------------------------------------|
    P.M.  P.M.     P.M.  P.M.     P.M.  P.M.    P.M.  P.M.

e|---------------------------------------------------------------------------|
B|---------------------------------------------------------------------------|
G|--7----7----7h9--7----7----7h9--7---7----7h9-7-----------------------------|
D|----7----7---------7----7---------7---7------------------------------------| 
A|---------------------------------------------------------------------------|
E|---------------------------------------------------------------------------|
    P.M.  P.M.     P.M.  P.M.     P.M.  P.M.    P.M.  P.M.

(Guitar II)
e|---------------------------------------------------------------------------|
B|---------------------------------------------------------------------------|
G|--11----11----11h12--11----11-----11h12--11---11----11h12--11--------------|
D|----12----12------------12-----12-----------12---12------------------------| 
A|---------------------------------------------------------------------------|
E|---------------------------------------------------------------------------|
     P.M.  P.M.           P.M.  P.M.          P.M. P.M. 
 
INTRO x 2
 (Guitar I)
e|---------------------------------------------------------------------------|
B|---------------------------------------------------------------------------|
G|-------2-2-----------------------------------------------------------------|
D|---0-0-----0---0-0--5-5-0---0-0-4-4-0--4-0-4-0-4h5-------------------------|
A|---------------------------------------------------------------------------|
E|---------------------------------------------------------------------------|

e|---------------------------------------------------------------------------|
B|---------------------------------------------------------------------------|
G|-------2-2-----------------------------------------------------------------|
D|---0-0-----0---0-0--5-5-0---0-0-4-4-0--2-0-2-0-2h4-------------------------|
A|---------------------------------------------------------------------------|
E|---------------------------------------------------------------------------|

 (Guitar II)
e|---------------------------------------------------------------------------|
B|---------------------------------------------------------------------------|
G|--7777777777777777----------------------4444444444444444-------------------|
D|--7777777777777777---7777777777777777---4444444444444444---5555555555555555|
A|--5555555555555555---7777777777777777---2222222222222222---5555555555555555|
E|---------------------5555555555555555----------------------3333333333333333|

Verse 
(Guitar I)
e|--------------------------------------------------------------|
B|--------------------------------------------------------------|
G|--------------------------------------------------------------|
D|------5-----0------5------0------5-----0-----5-----0----------| x2
A|--3-3---3-3----3-3----3-3----3-3---3-3---3-3---3-3------------|
E|--------------------------------------------------------------|
P.M.- -   - -    - -    - -    - -   - -   - -   - -

e|--------------------------------------------------------------|
B|--------------------------------------------------------------|
G|--------------------------------------------------------------|
D|------5-----0------5------0------5-----0-----5-----0----------| x2
A|--3-3---3-3----3-3----3-3----3-3---3-3---3-3---3-3------------|
E|--------------------------------------------------------------|
P.M.- -   - -    - -    - -    - -   - -   - -   - -
(Guitar II)
e|-------------------------------------------------------|
B|-------------------------------------------------------|
G|-------------------------------------------------------|
D|--5--3--2--0--5--3--2--0---5--3------------------------|
A|--3--3--3--3--3--3--3--3---3--3------------------------|
E|-------------------------------------------------------|

Chorus
e|------------------------------------------------------------|
B|------------------------------------------------------------|
G|--7-------4-------------------------------------------------|
D|--7---7---4---5---------------------------------------------| x4
A|--5---7---2---5---------------------------------------------|
E|------5-------3---------------------------------------------|

INTRO x2

VERSE


Chorus
e|------------------------------------------------------------|
B|------------------------------------------------------------|
G|--7-------4-------------------------------------------------|
D|--7---7---4---5---------------------------------------------| x4
A|--5---7---2---5---------------------------------------------|
E|------5-------3---------------------------------------------|

e|--|
B|--|
G|-7| x2
D|-x|
A|-5|
E|--|
Interlude(plays like pre-intro)
 and then:

(2.02-2.19)
e|---------------------------------------------------------------------------|
B|---------------------------------------------------------------------------|
G|--7777777777777777----------------------4444444444444444-------------------| x2
D|--7777777777777777---7777777777777777---4444444444444444---5555555555555555|
A|--5555555555555555---7777777777777777---2222222222222222---5555555555555555|
E|---------------------5555555555555555----------------------3333333333333333|




e|-------------------------------------------------------|
B|-------------------------------------------------------|
G|-------------------------------------------------------|
D|-------------------------------------------------------|
A|-------------------------------------------------------|
E|-------------------------------------------------------|

e|-------------------------------------------------------|
B|-------------------------------------------------------|
G|-------------------------------------------------------|
D|-------------------------------------------------------|
A|-------------------------------------------------------|
E|-------------------------------------------------------|

(2.37)
e|---------------------------------------------------------------------------|
B|---------------------------------------------------------------------------|
G|----7--7--7-----------------------------4444444444444444-------------------| 
D|--77-77-77-77--------7777777777777777---4444444444444444---5555555555555555|
A|--55-55-55-55--------7777777777777777---2222222222222222---5555555555555555|
E|---------------------5555555555555555----------------------3333333333333333|

e|---------------------------------------------------------------------------|
B|---------------------------------------------------------------------------|
G|--7777777777777777----------------------4444444444444444-------------------| x3
D|--7777777777777777---7777777777777777---4444444444444444---5555555555555555|
A|--5555555555555555---7777777777777777---2222222222222222---5555555555555555|
E|---------------------5555555555555555----------------------3333333333333333|

*******************************************************************



Visit my band if you like the tab:

www.myspace.com/sevenhopes


Have Fun!!

********************************************************************


P.M. = palm mute
p = pull off
h = hammer on 
\ = slide down
/ = slide up
~ = vibrato (shake the string)
Tap to rate this tab
# A B C D E F G H I J K L M N O P Q R S T U V W X Y Z