Song name
# A B C D E F G H I J K L M N O P Q R S T U V W X Y Z

Melody Fall - My Friends Girlfriend tab

Intro

E||-------------------------------|------------------------------||
B||-------------13----------------|------------------------------||
G||------9--------------12--------|------9------10--9------------||
D||--10-----10------10------10----|--10-----10---------12--10----||
A||-------------------------------|------------------------------||
E||-------------------------------|------------------------------||


Strofa: Guitar1
                                                           
E||--------------------------|----------------------------|
B||--------------------------|----------------------------|
G||--------------------------|----------------------------|
D||--------------------------|----------------------------|
A||--7--7--7--7--7--7--7--7--|--7--10--7--8--7--7---------|
E||--------------------------|---------------------8--10--|


                                                         
--------------------------|-----------------------------|
--------------------------|-----------------------------|
--------------------------|-----------------------------|
--------------------------|-----------------------------|
-----8--8--8--8--8--8--8--|--8--10--8--8--7--7--8-------|
--8-----------------------|------------------------8h---|


                                                                
--------------------------------|------------------------------|
--------------------------------|------------------------------|
--------------------------------|------------------------------|
--------------------------------|------------------------------|
----10--10--10--10--10--10--10--|--10--10--8--8--7--7----------|
--------------------------------|----------------------10--10--|


                                                       
---------------------------|--------------------------|
---------------------------|--------------------------|
---------------------------|--------------------------|
---------------------------|--------------------------|
---------7--7--7--7--7--7--|------------7--7--8--8----|
--10--8--------------------|--10--8--8----------------|


Guitar2                                                               
-------------------------------|-------------------------------|
-------------------------------|-------------------------------|
--------12------10------9------|----------------------9--------|
----10------10------10-----10--|--12--10--12--10--12-------10--|
-------------------------------|-------------------------------|
-------------------------------|-------------------------------|


                                                                 
--------------------------------|-------------------------------|
--------------------------------|-------------------------------|
--9------12------10------9------|----------------------9--------|
-----10------10------10-----10--|--12--10--12--10--12-------10--|
--------------------------------|-------------------------------|
--------------------------------|-------------------------------|


                                                               
--------------------------------|-----------------------------|
--------------------------------|-----------------------------|
--9------12------10------9------|----------------------9------|
-----10------10------10-----10--|--12--10--12--10--12---------|
--------------------------------|-----------------------------|
--------------------------------|-----------------------------|


                                                                  
-----------------------------|-----------------------------||
-----------------------------|-----------------------------||
------12------10------9------|----------------------9------||
----------10------10-----10--|--12--10--12--10--12---------||
-----------------------------|-----------------------------||
-----------------------------|-----------------------------||
Tap to rate this tab
# A B C D E F G H I J K L M N O P Q R S T U V W X Y Z