Song name
# A B C D E F G H I J K L M N O P Q R S T U V W X Y Z

Melody Gardot - Love Me Like A River Does chords

Highlighted       Show chord diagrams
After some searching I found the chords (they may not all be complete chords).
Use a capo on 1'st fret, it's easier.
It sounds better on the piano but here you go, the song is in C minor and goes like this:


     Cm9                      Fm6
-------------|           --------------|
----------3--|           ----------1---|
----------3--|           ----------1---|
------1------|           ------3-------|
--3----------|           --------------|
-------------|           ---1----------|

   Ddim (X4)                 G5(X3) 
-------------|           --------------| 
-------------|           --------------| 
-------------|           --------------| 
-----3-------|           ------5-------| 
-----5-------|           ------5-------| 
-----4-------|           ------3-------| 




Cm9
Love me like a river does
Fm6
Cross the sea
Cm9
Love me like a river does
Fm6
Endlessly
Cm9                       Fm6
Love me like a river does

              Ddim            G5
Baby don't rush you're no waterfall
                Cm9
Love me that is all



Drop a line at s314h@ yahoo . com
Tap to rate this tab
# A B C D E F G H I J K L M N O P Q R S T U V W X Y Z