Song name
# A B C D E F G H I J K L M N O P Q R S T U V W X Y Z

Melodys Echo Chamber - Crystallized tab

Melody's Echo Chamber ///// Crystallized

Guitar Tab
_
Verse
e|-----------------------------------------------------------2-----2-----0-----0------|
B|--------5------5------5------5------2------2------2------0---0-----0-----0-----0----|
G|------0------0------0------0------0------0------0------0-------0-----0-----0-----0--|
D|----7------7------7------7------4------4------4------4------------------------------|
A|--0---------------------------------------------------------------------------------|
E|------------------------------------------------------------------------------------|

_
Chorus
e|------2------2------2------2------5------5------5------5----|
B|------------------------------------------------------------|
G|----4------4------4------4------6------6------6------6------|
D|--5------5------5------5------7------7------7------7--------|
A|------------------------------------------------------------|
E|------------------------------------------------------------|

_
Outro (Fuzzzzz) The basic bits of the outro…
e|------------------------------------------------------------|
B|------------------------------------------------------------|
G|------------------------------------------------------------|
D|----------7--5-7-5-------------7--5-7-5---7--------7--7777--|
A|-------------------7--------------------7-------------------|
E|--5-5-5-5--------------5-5-5-5-------------5-5-5-5----------|

e|------------------------------------------------------------|
B|------------------------------------------------------------|
G|------------------------------------------------------------|
D|------------------------------------7-7777------------------|
A|------------------4---4-5/7---------------------------------|
E|--5-5-5-5-5-5-5-5---5-------5-5-5-5--------5-5-5-5-5-5-5-5--|

wooo
Tap to rate this tab
# A B C D E F G H I J K L M N O P Q R S T U V W X Y Z