Song name
# A B C D E F G H I J K L M N O P Q R S T U V W X Y Z

Melodys Echo Chamber - Bisou Magique tab

Melody's Echo Chamber ///// Bisou Magique

Guitar Tab
_
Verse
E|--------4-------4-------4-------4-------2-------2-------2-------2--|
B|------4-------4-------4-------4-------4-------4-------4-------4----|
G|----4-------4-------4-------4-----2-4-----2-4-----2-4-----2-4------|
D|--6-------6-------6-------6----------------------------------------|
A|-------------------------------------------------------------------|
E|-------------------------------------------------------------------|

E|--------0-------0-------0-------0--||
B|------4-------4-------4-------4----||
G|----4-------4-------4-------4------||
D|--2-------2-------2-------2--------||
A|-----------------------------------||
E|-----------------------------------||

_
Chorus
E|--------0-------0-------2-------2-------0-------0-------0-------0--|
B|------2-------2-------2-------2-------1-------1-------1-------1----|
G|--1-2-----1-2-------2-------2-----0-2-----0-2-----0-2-----0-2------|
D|------------------4-------4----------------------------------------|
A|-------------------------------------------------------------------|
E|-------------------------------------------------------------------|

E|--------3-------3-------2-------2--||
B|------1-------1-------1-------1----||
G|--0-2-----0-2-----0-2-----0-2------||
D|-----------------------------------||
A|-----------------------------------||
E|-----------------------------------||
Tap to rate this tab
# A B C D E F G H I J K L M N O P Q R S T U V W X Y Z