Song name
# A B C D E F G H I J K L M N O P Q R S T U V W X Y Z

Melodys Echo Chamber - Some Time Alone Alone tab

                   Melody's Echo Chamber - Some Time Alone, Alone
                          from her 2012 self-titled album

This song was actually recorded a quarter step higher, but it's quite hard to tune up a
quarter step because it's halfway between two different notes, so I've just tabbed it out in
standard. It will sound good playing on your own (in fact you pretty much won't be able to
tell any difference at all), but you probably won't be able to play along with the recording
accuarately unless you tune up a quarter step.

Intro:
Guitar:
e|-2--2--2--2--2--2--2---9--9--9--8---8---8---8---8---8---8---8--|
B|-2--2--2--2--2--2--2--11-11-11--9---9---9---9---9---9---9---9--|
G|-3--3--3--3--3--3--3--11-11-11-10--10--10--10--10--10--10--10--|
D|-4--4--4--4--4--4--4--11-11-11-10--10--10--10--10--10--10--10--|
A|-4--4--4--4--4--4--4---9--9--9--8---8---8---8---8---8---8---8--|
E|-2--2--2--2--2--2--2-------------------------------------------|


Then the rest of the band comes in:
Guitar:
e|-2--2--2--2--2--2--2---9--9--9--8---8---8---8---8---8---8---8--|
B|-2--2--2--2--2--2--2--11-11-11--9---9---9---9---9---9---9---9--|
G|-3--3--3--3--3--3--3--11-11-11-10--10--10--10--10--10--10--10--| x2
D|-4--4--4--4--4--4--4--11-11-11-10--10--10--10--10--10--10--10--|
A|-4--4--4--4--4--4--4---9--9--9--8---8---8---8---8---8---8---8--|
E|-2--2--2--2--2--2--2-------------------------------------------|

Synth:
e|-11----------------13------------11----------------13----------|
B|----14-13-11-----------13----14-----14-13-11-----------13------|
G|-------------13------------------------------13----------------| x2
D|---------------------------------------------------------------|
A|---------------------------------------------------------------|
E|---------------------------------------------------------------|


Pre-verse:
Guitar:
e|-6--6--6--6--3--3--3--3--|
B|-8--8--8--8--4--4--4--4--|
G|-8--8--8--8--5--5--5--5--| x3
D|-8--8--8--8--5--5--5--5--|
A|-6--6--6--6--3--3--3--3--|
E|-------------------------|

e|-6--6--6--6--6--6--6--6--|
B|-6--6--6--6--6--6--6--6--|
G|-7--7--7--7--7--7--7--7--|
D|-8--8--8--8--8--8--8--8--|
A|-8--8--8--8--8--8--8--8--|
E|-6--6--6--6--6--6--6--6--|

Synth:
e|-------------------------------------------------|
B|-------11----13----11----------11----13----11----|
G|----12----12----12----12----12----12----12----12-| x3
D|-13----------------------10----------------------|
A|-------------------------------------------------|
E|-------------------------------------------------|

e|------------8---------------------8----------|
B|------11---------11---------11---------11----|
G|---10----10---10----10---10----10---10----10-|
D|---------------------------------------------|
A|-8---------------------8---------------------|
E|---------------------------------------------|


Verse:
"We resign the light to someone, and hand it to the righteous, 
We will walk until the right emotion,
Some time alone, alone to wonder, change your mind up,
Waiting around, but everyone else is moving on..."
Guitar:
e|-2--2--2--2--2--2--2--2--2--2--2--2--2--2--2--2---8---8---8---8---8---8---8---8--|
B|-2--2--2--2--2--2--2--2--2--2--2--2--2--2--2--2---9---9---9---9---9---9---9---9--|
G|-3--3--3--3--3--3--3--3--3--3--3--3--3--3--3--3--10--10--10--10--10--10--10--10--| \
D|-4--4--4--4--4--4--4--4--4--4--4--4--4--4--4--4--10--10--10--10--10--10--10--10--|  \
A|-4--4--4--4--4--4--4--4--4--4--4--4--4--4--4--4---8---8---8---8---8---8---8---8--|   \
E|-2--2--2--2--2--2--2--2--2--2--2--2--2--2--2--2----------------------------------|    |
                                                                                        | x2
e|-6--6--6--6--6--6--6--6--4--4--4--4--4--4--4--4--|                                    |
B|-8--8--8--8--8--8--8--8--5--5--5--5--5--5--5--5--|                                   /
G|-8--8--8--8--8--8--8--8--6--6--6--6--6--6--6--6--|                                  /
D|-8--8--8--8--8--8--8--8--6--6--6--6--6--6--6--6--|                                 /
A|-6--6--6--6--6--6--6--6--4--4--4--4--4--4--4--4--|
E|-------------------------------------------------|

Another guitar plays this lead:
e|--------------|
B|-6--6--6--6-4-|
G|--------------| x8
D|--------------|
A|--------------|
E|--------------|

e|---------------------------|
B|-5--5--5--5/7-4--4--4--4/6-|
G|---------------------------|
D|---------------------------|
A|---------------------------|
E|---------------------------|

e|--------------|
B|-6--6--6--6-4-|
G|--------------| x7
D|--------------|
A|--------------|
E|--------------|

e|---------------------------|
B|-5--5--5--5/7-4----5--2----|
G|---------------------------|
D|---------------------------|
A|---------------------------|
E|---------------------------|


Pre-chorus:
"...and on and on"
Guitar:
e|-2--2--2--2--2--2--2---9--9--9--8---8---8---8---8---8---8---8--|
B|-2--2--2--2--2--2--2--11-11-11--9---9---9---9---9---9---9---9--|
G|-3--3--3--3--3--3--3--11-11-11-10--10--10--10--10--10--10--10--|
D|-4--4--4--4--4--4--4--11-11-11-10--10--10--10--10--10--10--10--|
A|-4--4--4--4--4--4--4---9--9--9--8---8---8---8---8---8---8---8--|
E|-2--2--2--2--2--2--2-------------------------------------------|

Another guitar plays this lead:
e|---2----0-0------------------------------|
B|-2-------------7-4----5--2----2-4--------|
G|-----------------------------------------|
D|-----------------------------------------|
A|-----------------------------------------|
E|-----------------------------------------|


And then guitar gets quieter and the synth plays:
Synth:
e|-11----------------13------------11----------------13----------|
B|----14-13-11-----------13----14-----14-13-11-----------13------|
G|-------------13------------------------------13----------------|
D|---------------------------------------------------------------|
A|---------------------------------------------------------------|
E|---------------------------------------------------------------|

Guitar quietly strums the chords:
e|-2--2--2--2--2--2--2---9---8---8---8---8---8---8---8---8--|
B|-2--2--2--2--2--2--2--11---9---9---9---9---9---9---9---9--|
G|-3--3--3--3--3--3--3--11--10--10--10--10--10--10--10--10--|
D|-4--4--4--4--4--4--4--11--10--10--10--10--10--10--10--10--|
A|-4--4--4--4--4--4--4---9---8---8---8---8---8---8---8---8--|
E|-2--2--2--2--2--2--2--------------------------------------|


Chorus:
"Empty heart, it's not the same at all,
Told a lie, and I'm losing my mind"
Guitar:
e|-6--6--6--6--3--3--3--3--|
B|-8--8--8--8--4--4--4--4--|
G|-8--8--8--8--5--5--5--5--| x3
D|-8--8--8--8--5--5--5--5--|
A|-6--6--6--6--3--3--3--3--|
E|-------------------------|

e|-6--6--6--6--6--6--6--6--|
B|-6--6--6--6--6--6--6--6--|
G|-7--7--7--7--7--7--7--7--|
D|-8--8--8--8--8--8--8--8--|
A|-8--8--8--8--8--8--8--8--|
E|-6--6--6--6--6--6--6--6--|

Synth:
e|-------------------------------------------------|
B|-------11----13----11----------11----13----11----|
G|----12----12----12----12----12----12----12----12-| x3
D|-13----------------------10----------------------|
A|-------------------------------------------------|
E|-------------------------------------------------|

e|------------8---------------------8----------|
B|------11---------11---------11---------11----|
G|---10----10---10----10---10----10---10----10-|
D|---------------------------------------------|
A|-8---------------------8---------------------|
E|---------------------------------------------|


Verse:
"Baby, you're the one, the one, at least until tomorrow, surprise,
We should shine a light on and leave me,
Don't undergo it all, look through your eyes, we made a compromise,
Used to be walking until the dawn, and on and on..."
Guitar:
e|-2--2--2--2--2--2--2--2--2--2--2--2--2--2--2--2---8---8---8---8---8---8---8---8--|
B|-2--2--2--2--2--2--2--2--2--2--2--2--2--2--2--2---9---9---9---9---9---9---9---9--|
G|-3--3--3--3--3--3--3--3--3--3--3--3--3--3--3--3--10--10--10--10--10--10--10--10--| \
D|-4--4--4--4--4--4--4--4--4--4--4--4--4--4--4--4--10--10--10--10--10--10--10--10--|  \
A|-4--4--4--4--4--4--4--4--4--4--4--4--4--4--4--4---8---8---8---8---8---8---8---8--|   \
E|-2--2--2--2--2--2--2--2--2--2--2--2--2--2--2--2----------------------------------|    |
                                                                                        | x2
e|-6--6--6--6--6--6--6--6--4--4--4--4--4--4--4--4--|                                    |
B|-8--8--8--8--8--8--8--8--5--5--5--5--5--5--5--5--|                                   /
G|-8--8--8--8--8--8--8--8--6--6--6--6--6--6--6--6--|                                  /
D|-8--8--8--8--8--8--8--8--6--6--6--6--6--6--6--6--|                                 /
A|-6--6--6--6--6--6--6--6--4--4--4--4--4--4--4--4--|
E|-------------------------------------------------|

Another guitar plays this lead:
e|--------------|
B|-6--6--6--6-4-|
G|--------------| x8
D|--------------|
A|--------------|
E|--------------|

e|---------------------------|
B|-5--5--5--5/7-4--4--4--4/6-|
G|---------------------------|
D|---------------------------|
A|---------------------------|
E|---------------------------|

e|--------------|
B|-6--6--6--6-4-|
G|--------------| x7
D|--------------|
A|--------------|
E|--------------|

e|---------------------------|
B|-5--5--5--5/7-4----5--2----|
G|---------------------------|
D|---------------------------|
A|---------------------------|
E|---------------------------|


Pre-chorus:
"...until the dawn"
Guitar:
e|-2--2--2--2--2--2--2---9--9--9--8---8---8---8---8---8---8---8--|
B|-2--2--2--2--2--2--2--11-11-11--9---9---9---9---9---9---9---9--|
G|-3--3--3--3--3--3--3--11-11-11-10--10--10--10--10--10--10--10--|
D|-4--4--4--4--4--4--4--11-11-11-10--10--10--10--10--10--10--10--|
A|-4--4--4--4--4--4--4---9--9--9--8---8---8---8---8---8---8---8--|
E|-2--2--2--2--2--2--2-------------------------------------------|

Another guitar plays this lead:
e|---2----0-0------------------------------|
B|-2-------------7-4----5--2----2-4--------|
G|-----------------------------------------|
D|-----------------------------------------|
A|-----------------------------------------|
E|-----------------------------------------|


And then guitar gets quieter and the synth plays:
Synth:
e|-11----------------13------------11----------------13----------|
B|----14-13-11-----------13----14-----14-13-11-----------13------|
G|-------------13------------------------------13----------------|
D|---------------------------------------------------------------|
A|---------------------------------------------------------------|
E|---------------------------------------------------------------|

Guitar quietly strums the chords:
e|-2--2--2--2--2--2--2---9---8---8---8---8---8---8---8---8--|
B|-2--2--2--2--2--2--2--11---9---9---9---9---9---9---9---9--|
G|-3--3--3--3--3--3--3--11--10--10--10--10--10--10--10--10--|
D|-4--4--4--4--4--4--4--11--10--10--10--10--10--10--10--10--|
A|-4--4--4--4--4--4--4---9---8---8---8---8---8---8---8---8--|
E|-2--2--2--2--2--2--2--------------------------------------|


Chorus:
"Empty heart, some time alone, alone,
Told a lie, and I'm losing my mind,
Empty heart, it's not the same at all,
Told a lie, and I'm losing my mind""
Guitar:
e|-6--6--6--6--3--3--3--3--|
B|-8--8--8--8--4--4--4--4--|
G|-8--8--8--8--5--5--5--5--| x3    \
D|-8--8--8--8--5--5--5--5--|        \
A|-6--6--6--6--3--3--3--3--|         \
E|-------------------------|          |
                                      | x2
e|-6--6--6--6--6--6--6--6--|          |
B|-6--6--6--6--6--6--6--6--|         /
G|-7--7--7--7--7--7--7--7--|        /
D|-8--8--8--8--8--8--8--8--|       /
A|-8--8--8--8--8--8--8--8--|
E|-6--6--6--6--6--6--6--6--|

Synth:
e|-------------------------------------------------|
B|-------11----13----11----------11----13----11----|
G|----12----12----12----12----12----12----12----12-| x3    \
D|-13----------------------10----------------------|        \
A|-------------------------------------------------|         \
E|-------------------------------------------------|          |
                                                              | x2
e|------------8---------------------8----------|              |
B|------11---------11---------11---------11----|             /
G|---10----10---10----10---10----10---10----10-|            /
D|---------------------------------------------|           /
A|-8---------------------8---------------------|
E|---------------------------------------------|

At the end strum the B-flat major chord with a decreasing tempo.



************************************

| /   slide up
| \   slide down
| h   hammer-on
| p   pull-off
| ~   vibrato
| +   harmonic
| x   Mute note
| .   staccato
| b   Bend
| pb  Pre-bend
| br  Bend release
| pbr Pre-bend release
| brb Bend release bend

************************************
Tap to rate this tab
 
# A B C D E F G H I J K L M N O P Q R S T U V W X Y Z