Song name
# A B C D E F G H I J K L M N O P Q R S T U V W X Y Z

Melodyssey - Distance And Regret tab

-----------------------------------------------------
          Distance and Regret - Melodyssey
-----------------------------------------------------
Tabbed by: Kristyn Lee
Email: spot_the_village_loony_836@hotmail.com

Tuning: Drop B

Intro
C#|----------------------------------------------------------|
G#|----------------------------------------------------------|
E |---44444-----------------44444------------------44444/7---|
B |---44444-2-5-4-2~--4-5-4-44444--4-5-4-2~--4-5-4-44444/7---|
F#|---22222-2-5-4-2~--4-5-4-22222--4-5-4-2~--4-5-4-22222/5---|
B |---------2-5-4-2~--4-5-4--------4-5-4-2~--4-5-4-----------|

C#|-----------------------------------------|
G#|-----------------------------------------|
E |-----------------44444-------------------|
B |--5-4-2~--4-5-4--44444-4-5-4-2~--4-5-4---|
F#|--5-4-2~--4-5-4--22222-4-5-4-2~--4-5-4---|
B |--5-4-2~--4-5-4--------4-5-4-2~--4-5-4---|

Verse
C#|---------------------------------------|
G#|---1111111111-1111111111-88888-88888---|
E |---x-x-x-x-x--x-x-x-x-x--xxxxx-xxxxx---|
B |---9-9-9-9-9--9-9-9-9-9--55555-55555---|
F#|---------------------------------------|
B |---------------------------------------|
verse part 2
C#|-----------------------------------------|
G#|---1313131313\11-xxx-1313131313\11-xxx---|
E |---x-x-x-x-x--x--xxx-x-x-x-x-x--x--xxx---|
B |---1010101010\8--xxx-1010101010\8--xxx---|
F#|-----------------------------------------|
B |-----------------------------------------| 

C#|-----------------------------------|
G#|---1010101010\8-xxx-1010101010\8---|
E |---x-x-x-x-x--x-xxx-x-x-x-x-x--x---|
B |---7-7-7-7-7-\5-xxx-7-7-7-7-7-\5---|
F#|-----------------------------------|
B |-----------------------------------|

Chorus x2
C#|----------------------------|
G#|--12-12121212121212/13\10---|
E |--x--x-x-x-x-x-x-x--x--x----|x2
B |--9--9-9-9-9-9-9-9-/10\7----|
F#|--9--9-9-9-9-9-9-9-/10\7----|
B |--9--9-9-9-9-9-9-9-/10\7----|
     "listen to me now..."
C#|-------------------------------------|
G#|-------------------------------------|
E |-------------------------------------|
B |---5-------5-------5-------5---------|
F#|---5-5p4p2-5-5p4p2-5-5p4p2-5-5p4p2---|
B |---5-5p4p2-5-5p4p2-5-5p4p2-5-5p4p2---|

Repeat verse & chorus

Bridge
    "oh me..."
C#|-----------------------|
G#|-----------------------|
E |-----------------------|x8
B |-----------------------|
F#|---22222-0-0-0-000-----|
B |---22222-0-0-0-000-----|

C#|---------------------------------------------------------------|
G#|---------------------------------------------------------------|
E |---------------------------------------------------------------|
B |---------------------------------------------------------------|
F#|---22222-0---000-22222-00--000-22222-0-0-000-22222-0-0-0-000---|
B |---22222-0---000-22222-00--000-22222-0-0-000-22222-0-0-0-000---|

Repeat intro

Repeat verse and chorus.

Repeat intro again.

The end

************************************

| /   slide up
| \   slide down
| h   hammer-on
| p   pull-off
| ~   vibrato
| +   harmonic
| x   Mute note
| b   Bend
| pb  Pre-bend
| br  Bend release
| pbr Pre-bend release
| brb Bend release bend

************************************
Tap to rate this tab
 
# A B C D E F G H I J K L M N O P Q R S T U V W X Y Z