Song name
# A B C D E F G H I J K L M N O P Q R S T U V W X Y Z

Melodyssey - Three Days Deep tab

------------------------------------------------------------
	        Three Days Deep - Melodyssey
------------------------------------------------------------
Tabbed by: Kristyn Lee
Email: spot_the_village_loony_836@hotmail.com

More people should listen to Melodyssey instead of the crap
that plays on the radio. 

Tuning: Drop B

Intro/verse
C#|-----------------------------------------|
G#|-----------------------------------------|
E |------------------------------------33---|x4
B |---5/7777\33-5/777\33-5/7777\33--00-33---|
F#|---5/7777\33-5/777\33-5/7777\33--00-11---|
B |---5/7777\33-5/777\33-5/7777\33--00------|

Chorus
C#|----------------------------------------|
G#|----------------------------------------|
E |-----6------7--666-777-666-777-666-7~---|
B |--44-----0~----444-000-444-000-444-0~---|
F#|--44-----0~----444-000-444-000-444-0~---|
B |--44-----0~----444-000-444-000-444-0~---|

2nd Verse
C#|---------------------------------------------------------------|
G#|---------------------------------------------------------------|
E |---------------------------------------------------------------|x2
B |---------------------------------------------------------------|
F#|---4444-0000-00-4444-0000-00-00-4444-0000-00-4444-0000-00-00---|
B |---4444-0000-00-4444-0000-00-00-4444-0000-00-4444-0000-00-00---|
      .... .... .. .... .... .. .. .... .... .. .... .... .. ..

Repeat chorus
Repeat 2nd verse riff x 2

C#|----------------------|
G#|----------------------|
E |----------------------|x4
B |---444-7~--777-555----|
F#|---222-5~--555-333----|
B |-----------555-333----|

    "i'm not your nightmare..."
C#|---------------------------------------------------------------|
G#|---------------------------------------------------------------|
E |---------------------------------------------------------------|x1
B |---------------------------------------------------------------|
F#|---4444-0000-00-4444-0000-00-00-4444-0000-00-4444-0000-00-00---|
B |---4444-0000-00-4444-0000-00-00-4444-0000-00-4444-0000-00-00---|
      .... .... .. .... .... .. .. .... .... .. .... .... .. ..
Then this x4
C#|-------------------|
G#|-------------------|
E |--6666-------------|x4
B |--4444-0000-0000---|
F#|--4444-0000-0000---|
B |--4444-0000-0000---|

Repeat the chorus

Repeat the intro again

The End



=========================================
| . palm mute 
| /  slide up
| \  slide down
| h  hammer-on
| p  pull-off
| ~  vibrato
| +  harmonic
| x  Mute note
=========================================
Tap to rate this tab
# A B C D E F G H I J K L M N O P Q R S T U V W X Y Z