Song name
# A B C D E F G H I J K L M N O P Q R S T U V W X Y Z

Melodyssey - The Constant Rain tab

-------------------------------------------------------
            The Constant Rain - Melodyssey
-------------------------------------------------------
Tabbed by: Kristyn Lee
Email: spot_the_village_loony_836@hotmail.com

Awesome song, pretty easy to learn

Tuning: Drop D

e|-----------------------------------|
B|-----------------------------------|
G|--535353-656565-868686868686-------|x2
D|--333333-444444-666666666666-------|
A|-----------------------------------|
D|-----------------------------------|

Chorus riff
e|--------------------------------------------------------------------|
B|--------------------------------------------------------------------|
G|--5553335553335533-6665556665556655-88866688866886668886668886688---|
D|--3333333333333333-4444444444444444-66666666666666666666666666666---|
A|--------------------------------------------------------------------|
D|--------------------------------------------------------------------|

verse
e|----------------------------------------------------------|
B|----------------------------------------------------------|
G|-------10101010-----10101010-----10101010-----10101010----|
D|-------x-x-x-x------x-x-x-x------x-x-x-x------x-x-x-x-----|
A|--xxxx-8-8-8-8-xxxx-8-8-8-8-xxxx-8-8-8-8-xxxx-8-8-8-8-----|
D|--xxxx---------xxxx---------xxxx---------xxxx-------------|

e|----------------------------------------------------------|
B|----------------------------------------------------------|
G|-------11111111-----11111111-----11111111-----11111111----|
D|-------x-x-x-x------x-x-x-x------x-x-x-x------x-x-x-x-----|
A|--xxxx-9-9-9-9-xxxx-9-9-9-9-xxxx-9-9-9-9-xxxx-9-9-9-9-----|
D|--xxxx---------xxxx---------xxxx---------xxxx-------------|

Pre-Chorus
  "i hold my head up..."
e|-------------------------------------------|
B|-------------------------------------------|
G|--10101010101010101010101010101010101010---|
D|--x-x-x-x-x-x-x-x-x-x-x-x-x-x-x-x-x-x-x----|
A|--8-8-8-8-8-8-8-8-8-8-8-8-8-8-8-8-8-8-8----|
D|-------------------------------------------|
  "keep the light on..."                     |x2
e|-------------------------------------------|
B|-------------------------------------------|
G|--11111111111111111111111111111111111111---|
D|--x-x-x-x-x-x-x-x-x-x-x-x-x-x-x-x-x-x-x----|
A|--9-9-9-9-9-9-9-9-9-9-9-9-9-9-9-9-9-9-9----|
D|-------------------------------------------|

play chorus riff, verse, pre-chorus and chorus again

2:11
e|---------------------------------------|
B|---------------------------------------|
G|---10101010101010101111111111111111----|
D|---x-x-x-x-x-x-x-x-x-x-x-x-x-x-x-x-----|
A|---8-8-8-8-8-8-8-8-9-9-9-9-9-9-9-9-----|
D|---------------------------------------|

2:14      (1's not elevens)
e|---------------------------------|
B|---------------------------------|
G|---------------------------------|
D|--1-1-1--11111-11111-11111-------|
A|--1-1-1--11111-11111-11111-------|
D|--1-1-1--11111-11111-11111-------|
    .
2:19   
e|---------------------------------------|
B|---------------------------------------|
G|---10101010101010101111111111111111----|
D|---x-x-x-x-x-x-x-x-x-x-x-x-x-x-x-x-----|
A|---8-8-8-8-8-8-8-8-9-9-9-9-9-9-9-9-----|
D|---------------------------------------|
2:31  "never felt this way before..."
e|----------------------------------------------------------|
B|----------------------------------------------------------|
G|----------------------------------------------------------|
D|----------------------------------------------------------|
A|--1-1-1-11111-11111-11111-11111-11111-11111-11111-11111---|
D|--1-1-1-11111-11111-11111-11111-11111-11111-11111-11111---|
    .
2:40
e|------------------------------------|
B|------------------------------------|
G|---535353-656565-868686868686-5~----|
D|---333333-444444-666666666666-3~----|
A|------------------------------------|
D|------------------------------------|
2:49
e|------------------------------|
B|------------------------------|
G|--53-66----------555555-------|
D|--33-44----------333333-------|
A|--------44-11-11--------------|
D|--------44-11-11--------------|

Repeat pre-chorus and chorus


************************************

| .   palm mute
| /   slide up
| \   slide down
| h   hammer-on
| p   pull-off
| ~   vibrato
| +   harmonic
| x   Mute note
| b   Bend
| pb  Pre-bend
| br  Bend release
| pbr Pre-bend release
| brb Bend release bend

************************************
Tap to rate this tab
# A B C D E F G H I J K L M N O P Q R S T U V W X Y Z