Song name
# A B C D E F G H I J K L M N O P Q R S T U V W X Y Z

Melodyssey - Aquaplane tab

--------------------------------------------------------
		Aquaplane - Melodyssey
--------------------------------------------------------
Tabbed by: Kristyn Lee
Email: spot_the_village_loony_836@hotmail.com

Tuning: Drop B

C#|---------------2~-----|
G#|---------8-----0~-----|
E |-----7-----7---x------|x12
B |---5---5-----5\2~-----|
F#|----------------------|
B |----------------------|

C#|---------------2-2---------------2~-----|
G#|---------8-----0-0---------8-----0~-----|
E |-----7-----7---x-x-----7-----7---x------|x2
B |---5---5-----5\2-2---5---5-----5-2~-----|
F#|----------------------------------------|
B |----------------------------------------|

C#|---------------2~-----|
G#|---------8-----0~-----|
E |-----7-----7---x------|x6
B |---5---5-----5\2~-----|
F#|----------------------|
B |----------------------|

distorted riff
C#|----------------------------------------------------|
G#|---------8-------------------8----------------------|
E |---7-------7-----9-9---7-------7---------7h9p7------|
B |-----5-------5---9-9-----5-------5-----9------9-----|
F#|-------5-------7-7-7-------5-------7-7----------7---|
B |----------------------------------------------------|
      . . . . . . .       . . . . . . . .       

Chorus
C#|----------------------------------|
G#|----------------------------------|
E |----------------------------------|x2
B |----------------------------------|
F#|---0-2-5\2-0-2--0-2-5\2-0-2-0~----|
B |---0-2-5\2-0-2--0-2-5\2-0-2-0~----|
      .       .    .       . 

Repeat verse riffs & chorus

Bridge
C#|-------------------------|
G#|-------------------------|
E |-------------------------|x4
B |-------------------------|
F#|---4---2------0--0-1-----|
B |----3----1--1------------|
Heavy Part
C#|----------------------------|
G#|----------------------------|
E |----------------------------|x8
B |---5----5------3----3-------|
F#|---3-4--3-1--2-1--2-1-2-----|
B |-----4----1--2----2---2-----|

"i feel low..."
C#|---------------2~-----|
G#|---------8-----0~-----|
E |-----7-----7---x------|x4
B |---5---5-----5\2~-----|
F#|----------------------|
B |----------------------|

Play chorus again

End 
C#|--------------------|
G#|--------------------|
E |--------------------|
B |--------------------|
F#|---4---2------0~----|
B |----3----1--1-------|


************************************

| /   slide up
| \   slide down
| h   hammer-on
| p   pull-off
| ~   vibrato
| +   harmonic
| x   Mute note
| b   Bend
| pb  Pre-bend
| br  Bend release
| pbr Pre-bend release
| brb Bend release bend

************************************
Tap to rate this tab
 
# A B C D E F G H I J K L M N O P Q R S T U V W X Y Z