Song name
# A B C D E F G H I J K L M N O P Q R S T U V W X Y Z

Melodyssey - All Your Way tab

---------------------------------------------------------------
		  All Your Way - Melodyssey 
---------------------------------------------------------------
Tabbed by: Kristyn Lee
Email: spot_the_village_loony_836@hotmail.com

Tuning: Drop B

Intro
C#|------------------------------------|
G#|------------------------------------|
E |------------------------------------|x2
B |------------------------------------|
F#|------------------------------------|
B |--0h10h12-0h10h12-0h10h12-0h10h12---|
Palm Muted  "you're hard to define..."
C#|-------------------------------------------------------------------|
G#|-------------------------------------------------------------------|
E |-------------------------------------------------------------------|
B |-------------------------------------------------------------------|
F#|-------------------------------------------------------------------|
B |--0h10h12-0h10h12-0h10h12-0h10h12-0h10h12-0h10h12-0h10h12-0h10h12--|
     . .  .  .  . .  . .  .  . .  .  . .  .  . .  .  . .  .  . .  .

  "true to yourself..."
C#|------------------------------------|
G#|------------------------------------|
E |------------------------------------|x2
B |------------------------------------|
F#|------------------------------------|
B |--0h10h12-0h10h12-0h10h12-0h10h12---|
   "and you've been designed..."
C#|-------------------------------------------------------------------|
G#|-------------------------------------------------------------------|
E |-------------------------------------------------------------------|
B |-------------------------------------------------------------------|
F#|-------------------------------------------------------------------|
B |--0h10h12-0h10h12-0h10h12-0h10h12-0h10h12-0h10h12-0h10h12-0h10h12--|
     . .  .  .  . .  . .  .  . .  .  . .  .  . .  .  . .  .  . .  .
"to do it all by yourself..."
C#|------------------------------------|
G#|------------------------------------|
E |------------------------------------|x2
B |------------------------------------|
F#|------------------------------------|
B |--0h10h12-0h10h12-0h10h12-0h10h12---|

Verse
 "you play..."
C#|-----------------------------------------------------|
G#|-----------------------------------------------------|
E |---14----------------14---------------14-------------|
B |------12p10h12p10h12---12p10h12p10h12---12p10h12-----|
F#|-----------------------------------------------------|
B |-----------------------------------------------------|
  "all the time..."
C#|---------------------------------------------------------------------|
G#|---------------------------------------------------------------------|
E |---12----------------12--------------12---------11-------------------|
B |------12p10h12p10h12---12p10h12p10h12--12p10h12----12p10h12p10h12----|
F#|---------------------------------------------------------------------|
B |---------------------------------------------------------------------|
   "and we wonder how you know..."
C#|-----------------------------------------------------------------------|
G#|-----------------------------------------------------------------------|
E |--11--------------11--------11--------------11--------------11---------|
B |----12p10h12p10h12--12p10h12--12p10h12p10h12--12p10h12p10h12--12p10h12-|
F#|-----------------------------------------------------------------------|
B |-----------------------------------------------------------------------|

Repeat above riff 

Chorus
 "you do it all your way..."
C#|------------------------------------|
G#|------------------------------------|
E |------------------------------------|x2
B |------------------------------------|
F#|------------------------------------|
B |--0h10h12-0h10h12-0h10h12-0h10h12---|
  "your waaaaaay..."
C#|--------------------------------------------------|
G#|--------------------------------------------------|
E |--------------------------------------------------|
B |---333333333/5555555/77777777/1010101010101010----|
F#|---111111111/3333333/55555555/8-8-8-8-8-8-8-8-----|
B |--------------------------------------------------|

play first part 8 times then this
C#|--------------------------|--------12h13-13---|
G#|------13-13-15-15p13------|--13h15------------|
E |--------------------------|-------------------|x2
B |---12---------------------|-------------------|
F#|--------------------------|-------------------|
B |--------------------------|-------------------|

Go back to verse. Then chorus

C#|------------------------|
G#|------------------------|
E |---13~~---14~~----------|x2
B |---------------12~~~----|
F#|------------------------|
B |------------------------|

Repeat verse and chorus


************************************

| .   palm mute
| /   slide up
| \   slide down
| h   hammer-on
| p   pull-off
| ~   vibrato
| +   harmonic
| x   Mute note
| b   Bend
| pb  Pre-bend
| br  Bend release
| pbr Pre-bend release
| brb Bend release bend

************************************
Tap to rate this tab
 
# A B C D E F G H I J K L M N O P Q R S T U V W X Y Z