Song name
# A B C D E F G H I J K L M N O P Q R S T U V W X Y Z

Melodyssey - Fall Of The Star tab

--------------------------------------------------------------
		Fall Of The Star - Melodyssey
--------------------------------------------------------------
Tabbed by: Kristyn Lee
Email: spot_the_village_loony_836@hotmail.com

Tuning: Drop B

Intro
C#|-------------------------------------------|
G#|-------------------------------------------|
E |---10101010-10101010-10101010-10101010-----|x2
B |---11111111-11111111-11111111-11111111-----|
F#|---9-9-9-9--9-9-9-9--9-9-9-9--9-9-9-9------|
B |-------------------------------------------|

C#|---------------------------------------------------------|
G#|---------------------------------------------------------|
E |------11111111-----11111111-----11111111----11111111-----|x2
B |------11111111-----11111111-----11111111----11111111-----|
F#|------9-9-9-9------9-9-9-9------9-9-9-9-----9-9-9-9------|
B |---99-9-9-9-9--99--9-9-9-9--99--9-9-9-9--99-9-9-9-9------|
      ..          ..           ..           ..

      "you'll be a star...but you've..."
C#|---------------------------------------------------|
G#|---------------------------------------------------|
E |---------------------------------------------------|
B |------8-6-8-6----8-6-8-6----8-6-8-6----8-6-8-6-----|
F#|---------------------------------------------------|
B |---66---------66---------66---------66-------------|
      .. . . . . .. . . . . .. . . . . .. . . . .
   "underestimated everything..."
C#|-------------------------------------------|
G#|-------------------------------------------|
E |-------1111-----1111-----1111-----1111-----|
B |-------1111-----1111-----1111-----1111-----|
F#|-------9-9------9-9------9-9------9-9------|
B |---999-9-9--999-9-9--999-9-9--999-9-9------|
      ...      ...      ...      ...

      " i know who you are..."
C#|---------------------------------------------------|
G#|---------------------------------------------------|
E |---------------------------------------------------|
B |-------8p6-8p6----8p6-8p6----8p6-8p6----8p6-8p6----|
F#|---------------------------------------------------|
B |---66----------66---------66---------66------------|
      ..          ..         ..         ..
       "a sophisticated, jaded human being..."
C#|-------------------------------------------|
G#|-------------------------------------------|
E |-------1111-----1111-----1111-----1111-----|
B |-------1111-----1111-----1111-----1111-----|
F#|-------9-9------9-9------9-9------9-9------|
B |---999-9-9--999-9-9--999-9-9--999-9-9------|
      ...      ...      ...      ...
     "you're going away..."
C#|---------------------------------------------------|
G#|---------------------------------------------------|
E |---------------------------------------------------|
B |-------8p6-8p6----8p6-8p6----8p6-8p6----8p6-8p6----|
F#|---------------------------------------------------|
B |---66----------66---------66---------66------------|
      ..          ..         ..         ..
 "for a chance to shine you know it's just a lie..."
C#|-------------------------------------------|
G#|-------------------------------------------|
E |-------1111-----1111-----1111-----1111-----|
B |-------1111-----1111-----1111-----1111-----|
F#|-------9-9------9-9------9-9------9-9------|
B |---999-9-9--999-9-9--999-9-9--999-9-9------|
      ...      ...      ...      ...
   "we're not the same..."
C#|---------------------------------------------------|
G#|---------------------------------------------------|
E |---------------------------------------------------|
B |-------8p6-8p6----8p6-8p6----8p6-8p6----8p6-8p6----|
F#|---------------------------------------------------|
B |---66----------66---------66---------66------------|
      ..          ..         ..         ..
     "let the memories..."
C#|-------------------------------------------|
G#|-------------------------------------------|
E |-------1111-----1111-----1111-----1111-----|
B |-------1111-----1111-----1111-----1111-----|
F#|-------9-9------9-9------9-9------9-9------|
B |---999-9-9--999-9-9--999-9-9--999-9-9------|
      ...      ...      ...      ...
Chorus
C#|--------------------------------------------------------------|
G#|------------6~-666------------------6-7~----------------------|
E |--------8-8-8~-888-----10-1010---88-8-8~-----101010101010-----|
B |--------8-8-8~-888-----11-1111---88-8-8~-----111111111111-----|
F#|---4/6--6-6-6~-666-6/8-9--9-9----66-6-6~-6/8-9-9-9-9-9-9------|
B |---4/6-------------6/8-9--9-9------------6/8-9-9-9-9-9-9------|


Repeat verse then chorus


Bridge
C#|-------------------------------|
G#|------9---9---7---7---7--------|
E |-------------------------------|x2
B |---66---6---6---6---6----------|
F#|-------------------------------|
B |-------------------------------|
      ..   .   .   .   .
C#|-------------------------------|
G#|------11---11---9--9--9--------|
E |-------------------------------|x2
B |---99----9----9--9--9----------|
F#|-------------------------------|
B |-------------------------------|
      ..    .    .  .  .

C#|---------------------------------------------------|
G#|---------------------------------------------------|
E |---------------------------------------------------|
B |------8-6-8-6----8-6-8-6----8-6-8-6----8-6-8-6-----|
F#|---------------------------------------------------|
B |---66---------66---------66---------66-------------|
      .. . . . . .. . . . . .. . . . . .. . . . .
C#|----------------------------------------------------------|
G#|----------------------------------------------------------|
E |----------------------------------------------------------|
B |------11-9-11-9----11-9-11-9----11-9-11-9----11-9-11-9----|
F#|----------------------------------------------------------|
B |---99-----------99-----------99-----------99--------------|
      .. .  . .  . .. .  . .  . .. .  . .  . .. .  . .  .
   elevens not 1's
C#|----------------------------|
G#|----------------------------|
E |----------------------------|
B |----------------------------|
F#|---1111111111111111---------|
B |---1111111111111111---------|

                              elevens
C#|----------------|    |---------------------|
G#|----------------|    |---------------------|
E |----------------| x7 |---------------------|
B |----------------|    |---------------------|
F#|---xx-8p6-8p6---|    |--11111111111111-----|
B |---xx-8p6-8p6---|    |--11111111111111-----|


2:13
                          pick really fast
C#|-----------------|   |---------------------|
G#|-----------------|   |---------------------|
E |---15151515-15^--|x5 |---17--18-20---------|
B |---x-x-x-x--x----|   |----x---x--x---------|
F#|---13131313-13^--|   |---15--16-18---------|
B |-----------------|   |---------------------|

Repeat Chorus x 2


************************************
| .   palm mute
| /   slide up
| \   slide down
| h   hammer-on
| p   pull-off
| ~   vibrato
| +   harmonic
| x   Mute note
| b   Bend
| pb  Pre-bend
| br  Bend release
| pbr Pre-bend release
| brb Bend release bend

************************************
Tap to rate this tab
# A B C D E F G H I J K L M N O P Q R S T U V W X Y Z