Song name
# A B C D E F G H I J K L M N O P Q R S T U V W X Y Z

Melon Ed - My Life Sucks tab

Help us improve GuitareTab! Take a short survey!
MELON ED
MY LIFE SUCKS (intro)

Listen for exact picking
E----12-10-12-10-12-10-12-10-12-10-12-15-15-10-12-10-12-10-12-10-12-10-12-10-------|
B----------------------------------------------------------------------------12-10-|
G----------------------------------------------------------------------------------|
D----------------------------------------------------------------------------------|
A----------------------------------------------------------------------------------|
E----------------------------------------------------------------------------------|

E----12-10-12-10-12-10-12-10-12-10-12-15-15-10-12-10--------------------------|
B----------------------------------------------------12-11-10-----------------|
G-------------------------------------------------------------12-9-7-4-3-2-0--|
D-----------------------------------------------------------------------------|
A-----------------------------------------------------------------------------|
E-----------------------------------------------------------------------------|

E---------------------------------------------------|
B---------------------------------------------------|
G---------------------------------5-------7---------|
D---------2-------5-------7-------5-------7---------|
A---------2-------5-------7-------3-------5---------|
E---------0-------3-------5-------------------------|
Related for My Life Sucks tab