Song name
# A B C D E F G H I J K L M N O P Q R S T U V W X Y Z

Melpo Mene - Holes tab

-------------------------------------------------------------------------
                             Holes - Melpo Mene
-------------------------------------------------------------------------

This is basically the melody throughout. I couldn't figure out the more complicated tabs he plays
with the melody. 
I hope someone figures it out soon but in the meantime, here's what I came up with. 


Capo 4th Fret

Verse 

e-|----5-3-2-0---3-2-0---0---------------------------||
b-|--------------------3------3-1-0------------------||
G-|---------------------------------2---0-----4------||
D-|--0------------------------------------4-2---0-0--||
A-|------------3-------------------------------------||
E-|-------------------------3---------0--------------||
Tap to rate this tab
 
# A B C D E F G H I J K L M N O P Q R S T U V W X Y Z