Song name
# A B C D E F G H I J K L M N O P Q R S T U V W X Y Z

Melted Welly - A Song For Pig tab

-------------------------------------------------------------------------------
			     A Song For Pig - By Melted Welly
-------------------------------------------------------------------------------

By: Simon Burner
    Nick Cobley and
    Gowi

www.meltedwelly.cjb.net

e|----------------------------------------------------------------------------
B|---1-0-1---1-0-1----1-0-1-----1-0-1-----------------------------------------
G|-0--------------------------------- 2-1-------------------------------------
D|---------1--------0---------------------------------------------------------
A|----------------------------3-----------------------------------------------
E|----------------------------------------------------------------------------

e|----------------------------------------------------------------------------
B|---1-0-1---1-0-1----1-0-1-----1-0-1-----------------------------------------
G|-0--------------------------------- 2-1-------------------------------------
D|---------1--------0---------------------------------------------------------
A|----------------------------3-----------------------------------------------
E|----------------------------------------------------------------------------

e|----------------------------------------------------------------------------
B|----------------------------------------------------------------------------
G|----------------------5-----------------------------------------------------
D|----5-----  2---------5---5-------------------------------------------------
A|----5--x5---2--x5-----3---5-x5----------------------------------------------
E|----3---------------------3-------------------------------------------------

Do this 4 times then play the intro/rythm bit again

BASS


--------------------------------------------------------------------
--------------------------------------------------------------------
-------------------------------------3-3-3-3-3-3-3-3-3--------------
--3-3-3-3-3-3-3-3-3-0-0-0-0-0-0-0-0-0 ----------------3-3-3-3-3-3-3-

This is quite easy for bass but for the guitar not bad as getting
the lead bit is difficult 

                                  MELTED WELLY

=-==============================================================================
Tap to rate this tab
 
# A B C D E F G H I J K L M N O P Q R S T U V W X Y Z