Song name
# A B C D E F G H I J K L M N O P Q R S T U V W X Y Z

Melvins - Night Goat tab

Night Goat - full version with solo

ben.nield@gmail.com

Tuning - D, A, D, G, B, E

b bend
r release
^ bend 
~ vibrato

Main Riff
|-----------------------|
|-----------------------|
|-----------------------|
|-0-1-3-3-3-3-0---0--4^-|
|-0-1-3-3-3-3-0---0--4^-|
|-0-1-3-3-3-3-0---0--4^-|

Verse

|-------------------------------|
|-------------------------------|
|-------------------------------|
|-7-7-7-7-7-7-7-7-7-7-7-7-7-7-7-|
|-5-5-5-5-5-5-5-5-5-5-5-5-5-5-5-|
|-------------------------------|
PM.............................

Pre-Chorus

|-------------------------------|
|-------------------------------|
|-------------------------------|
|-------------------------------|
|-1-1-1-1-1-1-1-1-1-1-1-1-1-1-1-|
|-1-1-1-1-1-1-1-1-1-1-1-1-1-1-1-|
PM.............................

Solo - something along the lines of:
 
|------------------------------------------------------------|
|------------------------------------------------------------|
|------------------------------------------------------------|
|-0-1-3-3-3-3---------10h12-10h12-10h14^---14b14b14r14^12~~~-|
|-0-1-3-3-3-3-/12^----10h12-10h12-10-14^---14b14b14r14^12~~~-|
|-0-1-3-3-3-3------------------------------------------------|

|------------------------------------------------------------|
|----------------12^---12^-12-12-12^12-12-12^--12-10---------|
|-11h12p11h12p11--------------------------------------12-12^-|
|-11h12p11h12p11---------------------------------------------|
|------------------------------------------------------------|
|------------------------------------------------------------|

|------------------------------------|
|------------------------------------|
|------------------------------------|
|-12-12^xx12---11--------------------|
|----------------xxx11-10--x---------|
|--------------------------x--12br---|

Outro

|-----------------------|-----------------------|
|-----------------------|-----------------------|
|-----------------------|-----------------------|
|-0-1-3-3-3-3-0---0--4^-|-0-1-3-3-3-3-0~~-------|
|-0-1-3-3-3-3-0---0--4^-|-0-1-3-3-3-3-0~~-------|
|-0-1-3-3-3-3-0---0--4^-|-0-1-3-3-3-3-0~~-------|
|     Play x 4          |

Tap to rate this tab
# A B C D E F G H I J K L M N O P Q R S T U V W X Y Z