Guitaretab - guitar tabs
Song name
# A B C D E F G H I J K L M N O P Q R S T U V W X Y Z
Home / M / Melvins / Queen tab

Melvins - Queen tab

Album- Stoner Witch
Year- 1994
Tuning-  Step Down

Key
/ or \- Slide up or dowm
p.m. ..- Palm Mute(only notes woth dots under them)
b- bend
~- vibrato

Intro 00:00- 00:21, 00:39- 00:55, 1:35- 1:52-|
eb-------------------------------------------|
Bb-------------------------------------------|
Gb-------------------------------------------|
Db-------------------------------------------|
Ab-2-----4-4---2-----4-4-4-------------------|
Eb-0-0-0-----0-3-0-0-3-4-3-------------------|
p.m  . .         . .

Verse 00:21- 00:39,1:18- 1:35, 2:39- 2:55-|
eb----------------------------------------|
Bb----------------------------------------|
Gb----------------------------------------|
Db----------------------------------------|
Ab----------------------------------------|
Eb-0-0-0-0-0-0-0--0-0-0-0-----------------|
p.m. . . . . . .  . . . .

Chorus 00:55- 1:03, 1:52- 2:00, 2:55- 3:03-|
eb-----------------------------------------|
Bb-----------------------------------------|
Gb-----------------------------------------|
Db-5--5-5-5-5-5-5-5-5-5--8-8-7-7-7---------|
Ab-5--5-5-5-5-5-5-5-5-5--8-8-7-7-7---------|
Eb-3--3-0-3-3-3-0-3-0-3--6-6-5-5-0---------|
[ Tab from: http://www.guitaretab.com/m/melvins/11791.html ]
eb-----------------------------------|
Bb-----------------------------------|
Gb/8-9-9b-9b-9b-9b-9b-9b-9b-9b-9b-9--|b
Db/8-9-9b-9b-9b-9b-9b-9b-9b-9b-9b-9--|b
Ab/6-7-7--7--7--7--7--7--7--7--7--7--|
Eb-----------------------------------|

Chorus B 1:03- 1:18 2:00- 2:14
eb---------------------------------|
Bb---------------------------------|
Gb---------------------------10--9-|
Db---------------------------10--9-|
Ab-2-------------------------8---7-|
Eb-0-0-0-3-3-0-5-0-0-7-7-9-9-------|
p.m  . . . . . . . . . . . .

eb-----------------------------|
Bb-----------------------------|
Gb-----------------------------|
Db-----------------0-----------|
Ab-----------------0-5-7-5-7-0-|
Eb-0-0-3-3-0-5-0-0---3-5-3-5-0-|
p.m. . . . . . . .

eb--------------------------------------|
Bb--------------------------------------|
Gb--------------------------------------|
Db-------------5--6---------------------|
Ab-------------5--6-0-5-5-5-5--5-5--5-5-|
Eb-0-0-3-3-0-5-3--4-0-3-3-0-3b-0-3b-0-3-|
p.m. . . . . .

Interlude 2:14- 2:39 This part is hard to hear so don't
get angry if it's wrong. Bend at least  step on the chords
every time you hit them
eb-----------------------------------------------------------------|
Bb-----------------------------------------------------------------|
Gb-----------------------------------------------------------------|
Db-2------------3-1~------8-8-8-8-8-8-8-8-8-8-8-9-9-10-10-10-10-10-|
Ab-2----------------------6-6-0-6-6-0-6-0-6-6-6-7-7-8--8--8--8--8--|
Eb-0---------------------------------------------------------------|

There is three seconds of silence at the end of the song.
Related for Queen tab