Song name
# A B C D E F G H I J K L M N O P Q R S T U V W X Y Z

Melvins - Revolve tab

Help us improve GuitareTab! Take a short survey!
The Melvins - Revolve

 Tabbed by Thomas P.,

Hi, here is another tab I have made, the other revolve tabs I found were imcomplete and 
some mistakes, so I send you the one i use.
if you have any corrections or anything else just email me at march_of_pig[@]hotmail.com .

I'm looking for some "noise rock" guitar stuff, so if you are well informed about it or 
some interesting links in your bookmarks , let me know.

Drop-D tuning

        Q=100
Intro:

      S  S S S E  S   S  S  S S S S  S S S S  S S S S  S S S
E||-----------------------------------------------------------||
B||-----------------------------------------------------------||
G||*-------x-x----------------x-x------x-x------x-x------x-x-*||
D||*--5h-7-x-x-7--7p-(5)-5s-6-x-x-5h-6-x-x-5h-6-x-x-5h-6-x-x-*||
A||---5----x-x-5--5------5----x-x-5----x-x-5----x-x-5----x-x--||
D||-----------------------------------------------------------||


Verse: (w/ a heavier PM the third and fourth times)

      PM    PM    PM   PM PM PM PM PM       PM    PM    PM   PM PM PM   PM
   E  S  E  S  E  S  S S  S  S  S  E     E  S  E  S  E  S  S S  S  S  S E
--------------------------------------|------------------------------------|
--------------------------------------|------------------------------------|
*-------------------------------------|------------------------------------|
*-------------------------------------|------------------------------------|
---0--0--0--0--0--0--0-0--0--2--0--0--|--3--3--3--3--3--3--3-3--3--3p-0-0--|
---0--0--0--0--0--0--0-0--0--2--0--0--|--3--3--3--3--3--3--3-3--3--3p-0-0--|

        PM   PM PM PM PM    PM PM
  S  E  S  S S  S  S  S  E  S  S  S E
---------------------------------------|
---------------------------------------|
---------------------------------------|
---------------------------------------|
--3s-5--5----5--5--5--5--5--5--5--5-5--|
--3s-5--5----5--5--5--5--5--5--5--5-5--|


  PM PM PM PM PM PM PM PM PM PM
  S  S  S  S  S  S  S  S  S  S  E  E  E
------------------------------------------||
------------------------------------------||
-----------------------------------------*||
-----------------------------------------*||
--5--5--5--5--5--5--5--5--5--5--1--0------||
--5--5--5--5--5--5--5--5--5--5--1--0------||


Chorus:

   E  E  S E  E  S S S E  E
|----------------------------|
|----------------------------|
|--5--5----5--5----5-5-5-----|
|--5--5--x-5--5--x-5-5-5--x--|
|--3--3--x-3--3--x-3-3-3--x--|
|-------------------------x--|

  E  E  S E  E  S S S E  E     E  E  E  E  E  S S S  S E
----------------------------|-----------------------------|
----------------------------|-----------------------------|
----------------------------|--8--7-----8--7--------------|
--3--3--x-3--3--x-3-3-3--x--|--8--7-----8--7--x-x---------|
--3--3--x-3--3--x-3-3-3--x--|--6--5-----6--5--x-x---------|
--3--3--x-3--3--x-3-3-3--x--|---------------------3p-0----|

  E  E  E  E  E  S  S S  S E     E  E  S E  E  S S S E  E
------------------------------|----------------------------|
------------------------------|----------------------------|
--8--7-----8--7---------------|--5--5----5--5----5-5-5-----|
--8--7-----8--7---------------|--5--5--x-5--5--x-5-5-5--x--|
--6--5-----6--5---------------|--3--3--x-3--3--x-3-3-3--x--|
-----------------3p-0-3p-0----|-------------------------x--|

  E  E  S E  E  S S S E  E     E  E  S E  S E  S E  S E
----------------------------|----------------------------|
----------------------------|----------------------------|
----------------------------|----------------------------|
--3--3--x-3--3--x-3-3-3-----|----------------------------|
--3--3--x-3--3--x-3-3-3-----|----------6--6-5--5------3--|
--3--3--x-3--3--x-3-3-3--0--|--1--0--0-----------6--6----|

  E  E  S E  S E  S E  S S S
------------------------------|
------------------------------|
------------------------------|
------------------------------|
------------------------------|
--6--5--5-4--4-3--3-2--3-6-3\-|

-----------------------^ not a 100% sure


then play verse and chorus one more time.


Break:

   PM PM PM      PM PM PM
   S  S  S  S E  S  S  S  S S S E    E
|----------------------------------------|
|----------------------------------------|
|----------------------------------------|
|----------------------------------------|
|--9--9--9--9----9--9--9--9--------------|
|--9--9--9--9----9--9--9--9---0-3br--3~--|

  PM PM PM      PM PM PM                   PM PM PM PM
  S  S  S  S E  S  S  S  S S S E    E      S  S  S  S  Q    H
----------------------------------------|----------------------------|
----------------------------------------|----------------------------|
----------------------------------------|----------------------------|
----------------------------------------|----------------------------|
--9--9--9--9----9--9--9--9--------------|--9--9--9--9----------------|
--9--9--9--9----9--9--9--9---0-3br--3~--|--9--9--9--9----------------|

  W                    W                   W
--------------------|-------------------|-------------------|
--------------------|-------------------|-------------------|
--------------------|-------------------|-------------------|
--------------------|-------------------|-------------------|
--5~----------------|--L----------------|--L----------------|
--------------------|-------------------|-------------------|

                            pre solo
  H        Q     Q          S        E  S S S S S S E  S S S E
-----------------------||---------------------------------------|
-----------------------||---------------------------------------|
-----------------------||*--5s-------7--7-7---7-7---7--x-7-7-7--|
-----------------------||*--5s-------7--7-7---7-7---7--x-7-7-7--|
--L--------------------||---3s-------5--5-5---5-5---5--x-5-5-5--|
----------------12\----||---------------------------------------|

                                       PM PM PM PM    PM PM PM PM
  S  E  S S S S S S E  S E   E         S  S  S  S  E  S  S  S  S  S S E    E
----------------------------------||-------------------------------------------|
----------------------------------||-------------------------------------------|
--5--7--7-7---7-7---7--5-7b--7~--*||*------------------------------------------|
--5s-7--7-7---7-7---7------------*||*------------------------------------------|
--3s-5--5-5---5-5---5-------------||---9--9--9--9-----9--9--9--9---------------|
----------------------------------||---9--9--9--9-----9--9--9--9----0-3br--3~--|


  PM PM PM PM    PM PM PM PM
  S  S  S  S  E  S  S  S  S  S S E    E    3x  Q.     Q.     E  E
-------------------------------------------||----------------------|
-------------------------------------------||----------------------|
------------------------------------------*||--7------7------7--7--|
------------------------------------------*||--7------7------7--7--|
--9--9--9--9-----9--9--9--9----------------||--5------5------5--5--|
--9--9--9--9-----9--9--9--9----0-3br--3~---||----------------------|


  Q.     Q.     E  E       Q.     Q.     E  S S    Q.     Q.     E  E
----------------------||------------------------|-----------------------||
----------------------||------------------------|-----------------------||
--7------7------4--5--||*--7------7------7--7-7-|--7------7------4--5--*||
--7------7------4--5--||*--7------7------7--7-7-|--7------7------4--5--*||
--5------5------2--3--||---5------5------5--5-5-|--5------5------2--3---||
----------------------||------------------------|-----------------------||


Riff under the solo:

  E.  E.  S S S S S S E  E     E.  E.  S S S S S S E  E
----------------------------|----------------------------|
----------------------------|----------------------------|
----------------------------|--7---7---------------------|
----------------3-----------|--7---7---------3-----------|
--5---5---2-3-5---5-3-2--3--|--5---5---2-3-5---5-3-2--3--|
----------------------------|----------------------------|


Solo: (that I partly take from the other GP tab available)

  W                      S  H          Q    E.      S  H          Q    E.
---------------------|--------------------------|--------------------------|
---------------------|--------------------------|--------------------------|
---------------------|--10----------------------|--12----------------------|
--12~----------------|-----12~---------L----L---|-----12~---------L----L---|
---------------------|--------------------------|--------------------------|
---------------------|--------------------------|--------------------------|

   S  H          Q    E.      E.    Q      S  S  S  S  S  S  S  S  S
--------------------------|------------------------------------------|
--------------------------|--13b---13br----L-13-10-------10-13-10----|
--11----------------------|------------------------12-10----------12-|
-----12~---------L--------|------------------------------------------|
--------------------------|------------------------------------------|
--------------------------|------------------------------------------|

   S  S  S  S  S  S  S  H         T T     E.    Q      S  S  S  S  S  S  S  E
--------------------------------------|----------------------------------------|
--10----------------------------------|--13b---13br----L-13-10-------10--------|
-----12-10----10----------------------|------------------------12-10----12-10--|
-----------12----12-10-12~--------L---|----------------------------------------|
--------------------------------------|----------------------------------------|
--------------------------------------|----------------------------------------|

   E.    Q      S  S  S  S  S  S  E.      W
--------------------------------------|----------------------|
--------------------------------------|----------------------|
--12b---12br----L-10-12-10-12-10~-L---|--12br----------------|
--------------------------------------|----------------------|
--------------------------------------|----------------------|
--------------------------------------|----------------------|

   W                      W                      H          Q     Q
----------------------|----------------------|-------------------------|
----------------------|----------------------|-------------------------|
--12br----------------|--12br----------------|--12br--------L----14----|
----------------------|----------------------|-------------------------|
----------------------|----------------------|-------------------------|
----------------------|----------------------|-------------------------|

   S  E   S  E   S  E   S  E   S  E   S
----------------------------------------|
-----13-----13-----13-----13-----13S--0-|
--14-----14-----14-----14-----14--------|
----------------------------------------|
----------------------------------------|
----------------------------------------|

   S  E   S  E   S  E   S  E   S  E   S
----------------------------------------|
-----13-----13-----13-----13-----13S--0-|
--14-----14-----14-----14-----14--------|
----------------------------------------|
----------------------------------------|
----------------------------------------|

   S  E   S  E   S  E   S  E   S  E   S
----------------------------------------|
-----13-----13-----13-----13-----13-----|
--14-----14-----14-----14-----14-----14-|
----------------------------------------|
----------------------------------------|
----------------------------------------|

   E   S  E   S  E   S  S  S  S  S  S  S  S     W
--------------------------------------------|---------------------|
--13-----13-----13-----13-------------------|---------------------|
------14-----14-----14----14-12-10----10----|---------------------|
-----------------------------------12----12-|--12~----------------|
--------------------------------------------|---------------------|
--------------------------------------------|---------------------|

   S  H          Q    E.      W                     W            W
--------------------------|---------------------|------------|-----------|
--------------------------|---------------------|------------|-----------|
--10----------------------|---------------------|--12br------|-----------|
-----12~---------L----L---|--12~----------------|------------|---10~-----|
--------------------------|---------------------|------------|-----------|
--------------------------|---------------------|------------|-----------|


Outro:

   W                   H        Q    E  E
|-------------------|----------------------|
|-------------------|----------------------|
|--5----------------|----------------------|
|--5----------------|--3--------L----L-----|
|--3----------------|--3--------L----L-----|
|-------------------|--3--------L----L--0--|

    E  E  S E  S E  S E  S E     E  E  S E  S E  S E  S S S
|-----------------------------|-------------------------------||
|-----------------------------|-------------------------------||
|*----------------------------|------------------------------*||
|*----------------------------|------------------------------*||
|-----------6--6-5--5------3--|-------------------------------||
|---1--0--0-----------6--6----|--6--5--5-4--4-3--3-2--3-6-3\--||

  Q    Q    H
---------------------||
---------------------||
---------------------||
---------------------||
--0------------------||
--0------------------||

That's it.

Revolve

Freedom on like stems from walk away.
You gotta hold your time,
You gotta hit it with the right of way.
Maybe black too far for any like the one seen.
In a way it's sane,
Either way it's gotta mean.
Red sister might be chokin'
But I ain't about that kind.
Answer me with the rhythm of a body that was born to lose two times.

Hey big Bodie
He says deny but your for tin lie.
Head my shoulder
Big boat deloves, big boat deny.

They might try to hide
But they have to have some more dead sense.
You might be right
Like a ball in the wind.
Poison dandy lifeforms crime.
Mix both down cross,
Sticky pedal the line.
The flavor might be missin'
But he acts to cross that anyway.
You can bet he can diddle with the promise in the power of another day.

[Chorus]

Two of you sold my wallet.
One of you stole my tie.
Didn't you say that you're watching?
Do or die.
Venomous strange appears.
Three of you standing by.
Didn't you say that you've got it?
Watch me eye.
Related for Revolve tab