Guitaretab - guitar tabs
Song name
# A B C D E F G H I J K L M N O P Q R S T U V W X Y Z

Melvins - Second Coming tab

  End (This repeats until song runs into "Ballad of Dwight Fry")
   Note: Pick scrapes and slides downwards start this off
     Am                  E                    G                    D
E-|------------------------|--------------------|-----------------------------|
B-|------------------------|--------------------|-----------------------------|
G-|------------------------|--------------------|-----------------------------|
D-|----------------2--3----|---3--2-------------|---------------2-------------|
A-|-------2--3--5----------|---------5--3--2----|------2--3--5-----5----------|
E-|---5------------------0-|------------------3-|---5-------------------------|

[ Tab from: http://www.guitaretab.com/m/melvins/138490.html ]
                    F                    C                    E
E-|-------------------|--------------------|----------------------------------|
B-|-------------------|--------------------|----------------------------------|
G-|-------------------|--------------------|----------------------------------|
D-|--2----------------|--------------------|----------------------------2-----|
A-|-----5--3--2-------|---------2--3--5--3-|---5--3--2------------1--2--------|
E-|--------------5--1-|---3--5-------------|------------5--3--0---------------|


           E
E-|-----------------------------|
B-|-----------------------------|
G-|-----------------------------|
D-|-----------------3--2--------|
A-|--1--2-----1--2--------3--2--|
E-|--------0--------------------|
Related for Second Coming tab
Advertisement will be closed in 10 seconds