Song name
# A B C D E F G H I J K L M N O P Q R S T U V W X Y Z

Melvins - Hurter tab

Help us improve GuitareTab! Take a short survey!
(Dale Crover)

Tuning: Drop-D


Intro - play 4.5 times

    1   2   3   4   1   2   3   4     1   2   3   4   1   2   3   4
 e|---------------------------------|---------------------------------|
 B|---------------------------------|---------------------------------|
 G|---------------------------------|---------2=----------------------|
 D|-7=------7---7---7---7---9=-(9)\-|-3-------2=----------------------|
 A|-5=------5---5-0-7---7-0-9=-(9)\-|-3p0---0-2=------------------0-0-|
 D|-5=------5---5-0-7---7-0-9=-(9)\-|-3p0---0-2=------------------0-0-|
                PMx       x                 x                     x x

Riff 1 - play 2x

 e|---------------------------------|---------------------------------|
 B|---------------------------------|---------------------------------|
 G|-4=------4---4-4-4---4=------4---|-2r------2---2-2-----------------|
 D|-2=------2---2-2-2p0-0=------0---|-2r------2---2-2-2h3-3=------3-0-|
 A|---------------------------------|-0r------0---0-0-0---0=------0-0-|
 E|---------------------------------|---------------------------------|

Riff 2 - play 2x

 e|---------------------------------|---------------------------------|
 B|---------------------------------|---------------------------------|
 G|---------------------------------|-2=------2---2-2-2---------------|
 D|-2=------2---2-2-2p0-5=------5p0-|-2=------2---2-2-2h3-3=------3p0-|
 A|-2=------2---2-2-2p0-5=------5p0-|-0=------0---0-0-0h3-3=------3p0-|
 E|-2=------2---2-2-2p0-5=------5p0-|---------------------3=------3p0-|


Build-up 1

 e|---------------------------------|
 B|---------------------------------|
 G|---------------------------------|
 D|-3-3-3-3-3-3-3-3-3-3-3-3-3-3-3-3-|
 A|-3-3-3-3-3-3-3-3-3-3-3-3-3-3-3-3-|
 D|-3-3-3-3-3-3-3-3-3-3-3-3-3-3-3-3-|
 PM x x x x x x x x x x x x x x x x

Riff 3 - Guitar 2x, Bass 1x

    1   2   3   4   1   2   3   4     1   2   3   4   1   2   3   4
 e|---------------------------------|---------------------------------|
 B|---------------------------------|---------------------------------|
 G|---------------------------------|---------------------------------|
 D|-3=--------------3-3-3-3=3/5-5/7-|-7---0-x-2=----------------------|
 A|---------------------------------|---------------------------------|
 E|---------------------------------|---------------------------------|
                 PM x x x

Riff 3a - 4x

 e|---------------------------------|---------------------------------|
 B|---------------------------------|---------------------------------|
 G|---------------------------------|---------------------------------|
 D|---------------------------------|---------------------------------|
 A|---------------------------------|---------------------------------|
 D|-3=--------------3-3-3-3=3/5-5/7-|-7---0-x-2=----------------------|
                 PM x x x

Build-up 2

 e|---------------------------------|---------------------------------|
 B|---------------------------------|---------------------------------|
 G|---------------------------------|---------------------------------|
 D|-2-2-2-2-2-2-2-2-2-2-2-2-2-2-2-2-|-2-2-2-2-2-2-2-2-2-2-2-2-2-2-2-2-|
 A|-2-2-2-2-2-2-2-2-2-2-2-2-2-2-2-2-|-2-2-2-2-2-2-2-2-2-2-2-2-2-2-2-2-|
 D|-2-2-2-2-2-2-2-2-2-2-2-2-2-2-2-2-|-2-2-2-2-2-2-2-2-2-2-2-2-2-2-2-2-|
 PM x x x x x x x x x x x x x x x x   x x x x x x x x x x x x x x x x

Riff 2 - play 4x

 e|---------------------------------|---------------------------------|
 B|---------------------------------|---------------------------------|
 G|---------------------------------|-2=------2---2-2-2---------------|
 D|-2=------2---2-2-2p0-5=------5p0-|-2=------2---2-2-2h3-3=------3p0-|
 A|-2=------2---2-2-2p0-5=------5p0-|-0=------0---0-0-0h3-3=------3p0-|
 E|-2=------2---2-2-2p0-5=------5p0-|---------------------3=------3p0-|


Build-up 3

 e|---------------------------------|---------------------------------|
 B|---------------------------------|---------------------------------|
 G|---------------------------------|---------------------------------|
 D|-3-3-3-3-3-3-3-3-3-3-3-3-3-3-3-3-|-3-3-3-3-3-3-3-3-3-3-3-3-3-3-3-3-|
 A|-3-3-3-3-3-3-3-3-3-3-3-3-3-3-3-3-|-3-3-3-3-3-3-3-3-3-3-3-3-3-3-3-3-|
 D|-3-3-3-3-3-3-3-3-3-3-3-3-3-3-3-3-|-3-3-3-3-3-3-3-3-3-3-3-3-3-3-3-3-|
 PM x x x x x x x x x x x x x x x x   x x x x x x x x x x x x x x x x

Riff 3b - 2x, then Bass 1x

 e|---------------------------------|---------------------------------|
 B|---------------------------------|---------------------------------|
 G|---------------------------------|---------------------------------|
 D|-3=--------------3-3-3-3=--5-5/7-|-7---0---2=----------------------|
 A|-3=--------------3-3-3-3=3/5-5/7-|-7---0-x-2=----------------------|
 D|-3=--------------3-3-3-3=3/5-5/7-|-7---0-x-2=----------------------|
                 PM x x x

Riff 3 - Guitar alone 2x

 e|---------------------------------|---------------------------------|
 B|---------------------------------|---------------------------------|
 G|---------------------------------|---------------------------------|
 D|-3=--------------3-3-3-3=3/5-5/7-|-7---0-x-2=----------------------|
 A|---------------------------------|---------------------------------|
 E|---------------------------------|---------------------------------|
                 PM x x x

Riff 3a - repeat till fade

 e|---------------------------------|---------------------------------|
 B|---------------------------------|---------------------------------|
 G|---------------------------------|---------------------------------|
 D|---------------------------------|---------------------------------|
 A|---------------------------------|---------------------------------|
 D|-3=--------------3-3-3-3=3/5-5/7-|-7---0-x-2=----------------------|
                 PM x x x

LEGEND  AND  NOTES:
=  - Hold note/chord
PM - palm muting
h  - Hammer-on
p  - Pull-off
/  - Slide  up
\  -  Slide  down
x  -  Muted  string
Related for Hurter tab