Song name
# A B C D E F G H I J K L M N O P Q R S T U V W X Y Z

Melvins - Those Dumb Punk Kids tab

Title: Those dumb punk kids (will buy anything)
Artist: Jello Biafra & the Melvins
Album: Sieg Howdy
Guitarist: Buzz Osborne

Not incredibly difficult this one. There's news going round of a third biafra/
melvins album so fingers crossed.

Track 1: Electric Guitar w/dist

E|----------------------------|----------------------------|----------------------------|
B|----------------------------|----------------------------|-11---11---11---------------|
G|-3----3----3----------------|-3----3----3----------------|-10---10---10---9---9---9---|
D|-3----3----3----2---2---2---|-3----3----3----2---2---2---|-8----8----8----9---9---9---|
A|-1----1----1----2---2---2---|-1----1----1----2---2---2---|----------------7---7---7---|
E|----------------0---0---0---|----------------0---0---0---|----------------------------|


E|---------------------------------------||----------------------------------------|
B|---------------------------------------||o---------------------------------------|
G|---------------------------------------||----------------------------------------|
D|---------------------------------------||----------------------------------------|
A|---------------------5--5--7---5-------||o---------------------5--5--7---5-------|
E|-0--0--3---5--5--7-----------------7---||--0--0--3---5--5--7-----------------7---|

                                            _______________    __________  
                                           |1,2            x2 |3
E|---------------------------------------|--------|--------||-------------------------------------|
B|---------------------------------------|--------|-5-----o||-------------------------------------|
G|---------------------------------------|--------|-4------||-------------------------------------|
D|---------------------------------------|-2------|-2------||-7---7---7--7--7---7---7---7--7--7---|
A|---------------------5--5--7---5-------|-2------|-2-----o||-7---7---7--7--7---7---7---7--7--7---|
E|-0--0--3---5--5--7-----------------7---|-0------|-0------||-5---5---5--5--5---5---5---5--5--5---|


E|-------------------------------|--------------------------------|-------------------------------|
B|-------------------------------|--------------------------------|-------------------------------|
G|-------------------------------|--------------------------------|-------------------------------|
D|-9--9--9--9--9--10--10--12--12-|-7---7--7--7--7--7--7---7--7--7-|-9--9--9--9--9--10--10--12--12-|
A|-9--9--9--9--9--10--10--12--12-|-7---7--7--7--7--7--7---7--7--7-|-9--9--9--9--9--10--10--12--12-|
E|-7--7--7--7--7--8---8---10--10-|-5---5--5--5--5--5--5---5--5--5-|-7--7--7--7--7--8---8---10--10-|


E|-------------------------------------|-----------------------------------|----------------------|
B|-------------------------------------|-----------------------------------|----------------------|
G|-14--14--14-14-14--14--14--14-14-14--|-16--16--16-16-16--17--17--19--19--|-------------------9--|
D|-14--14--14-14-14--14--14--14-14-14--|-16--16--16-16-16--17--17--19--19--|-------------------9--|
A|-12--12--12-12-12--12--12--12-12-12--|-14--14--14-14-14--15--15--17--17--|-------------------7--|
E|-------------------------------------|-----------------------------------|-0---0---0--0--0------|


E|-------------------|------------------|-----------------||---------------------------------------|
B|-------------------|------------------|-----------------||o--------------------------------------|
G|----------------10-|----------------9-|---------------7-||---------------------------------------|
D|----------------10-|----------------9-|---------------7-||---------------------------------------|
A|----------------8--|----------------7-|---------------5-||o--------------------5--5--7---5--5----|
E|-0--0--0-0--0------|-0--0--0-0--0-----|-0--0--0-0--0----||--0--0--3---5--5--7------------------7-|

                                             _______________      ___________
                                            |1,2             x2  |3
E|-----------------------------------------|--------|--------||-----------------------------------|
B|-----------------------------------------|--------|-5-----o||-----------------------------------|
G|---------------------7--7--9---7--7--9---|--------|-4------||-----------------------------------|
D|-----------7--7--9-----------------------|-2------|-2------||-7---7---7--7--7---7---7---7--7--7-|
A|-7--7--10--------------------------------|-2------|-2-----o||-7---7---7--7--7---7---7---7--7--7-|
E|-----------------------------------------|-0------|-0------||-5---5---5--5--5---5---5---5--5--5-|


E|-------------------------------|------------------------------|--------------------------------|
B|-------------------------------|------------------------------|--------------------------------|
G|-------------------------------|------------------------------|--------------------------------|
D|-9--9--9--9--9--10--10--12--12-|-7--7--7--7--7--7--7--7--7--7-|-9--9--9--9--9---10--10--12--12-|
A|-9--9--9--9--9--10--10--12--12-|-7--7--7--7--7--7--7--7--7--7-|-9--9--9--9--9---10--10--12--12-|
E|-7--7--7--7--7--8---8---10--10-|-5--5--5--5--5--5--5--5--5--5-|-7--7--7--7--7---8---8---10--10-|


E|-------------------------------------|-----------------------------------|---------------------|
B|-------------------------------------|-----------------------------------|---------------------|
G|-14--14--14-14-14--14--14--14-14-14--|-16--16--16-16-16--17--17--19--19--|-------------------9-|
D|-14--14--14-14-14--14--14--14-14-14--|-16--16--16-16-16--17--17--19--19--|-------------------9-|
A|-12--12--12-12-12--12--12--12-12-12--|-14--14--14-14-14--15--15--17--17--|-------------------7-|
E|-------------------------------------|-----------------------------------|-0---0---0--0--0-----|


E|----------------------|---------------------|---------------------|----------------------------|
B|----------------------|---------------------|---------------------|----------------------------|
G|-------------------10-|-------------------9-|-------------------7-|----------------------------|
D|-------------------10-|-------------------9-|-------------------7-|-------7-----7------------7-|
A|-------------------8--|-------------------7-|-------------------5-|----6-----6-----6-----6-----|
E|-0---0---0--0--0------|-0---0---0--0--0-----|-0---0---0--0--0-----|-5-----------------5--------|


E|---------------------------|----------------------------------|----------------------------------|
B|---------------------------|----------------------------------|----------------------------------|
G|---------------------------|---------14-----14-------------14-|---------14-----14-------------14-|
D|-------7-----7-----------7-|-----13------13-----13-----13-----|-----13------13-----13-----13-----|
A|----6-----6-----6-----6----|-12--------------------12---------|-12--------------------12---------|
E|-5-----------------5-------|----------------------------------|----------------------------------|


       PM---------------------------|              PM--------------------------|
E|-------------------------------------------|-------------------------------------------|
B|-------------------------------------------|-2-----------------------------------------|
G|---------------------------------------2---|-2-----------------------------------------|
D|-----------------------------------5---2---|-2---------------------------------5---7---|
A|-2---2--2--2--2--2--2--2--2--2--2--5---0---|-0---2--2--2--2--2--2--2--2--2--2--5---7---|
E|-0---0--0--0--0--0--0--0--0--0--0--3-------|-----0--0--0--0--0--0--0--0--0--0--3---5---|


                                             PM---------------------------|
E|-----------------------------------||--------------------------------------------|
B|-----------------------------------||o-------------------------------------------|
G|-5---5---5--5--5---7---8---7---8---||----------------------------------------2---|
D|-5---5---5--5--5---7---8---7---8---||------------------------------------5---2---|
A|-3---3---3--3--3---5---6---5---6---||o-2---2--2--2--2--2--2--2--2--2--2--5---0---|
E|-----------------------------------||--0---0--0--0--0--0--0--0--0--0--0--3-------|


       PM--------------------------|
E|-------------------------------------------|-----------------------------------|
B|-2-----------------------------------------|-----------------------------------|
G|-2-----------------------------------------|-5---5---5--5--5---7---8---7---8---|
D|-2---------------------------------5---7---|-5---5---5--5--5---7---8---7---8---|
A|-0---2--2--2--2--2--2--2--2--2--2--5---7---|-3---3---3--3--3---5---6---5---6---|
E|-----0--0--0--0--0--0--0--0--0--0--3---5---|-----------------------------------|

   _____________________                  ______________
  |1,2                               x2  |3 PM---------------------------| 
E|-----------------------------------||-------------------------------------------|
B|----------------------------------o||-------------------------------------------|
G|-5---5---5--5--5---7---8---7---8---||-------------------------------------------|
D|-5---5---5--5--5---7---8---7---8---||-----------------------------------5---7---|
A|-3---3---3--3--3---5---6---5---6--o||-2---2--2--2--2--2--2--2--2--2--2--5---7---|
E|-----------------------------------||-0---0--0--0--0--0--0--0--0--0--0--3---5---|

                                                                                x2
E|-------------------------------------------||------------------------------------||
B|-2-----------------------------------------||o----------------------------------o||
G|-2-----------------------------------------||--5---5---5--5--5---7---8---7---8---||
D|-2---------------------------------5---7---||--5---5---5--5--5---7---8---7---8---||
A|-0---2--2--2--2--2--2--2--2--2--2--5---7---||o-3---3---3--3--3---5---6---5---6--o||
E|-----0--0--0--0--0--0--0--0--0--0--3---5---||------------------------------------||


E|---------------------------|---------------------------|---------------------------|
B|---------------------------|---------------------------|---------------------------|
G|---------------------------|---------------------------|-7----6---5----------------|
D|-7----6---5----------------|-------------------5---6---|----------------9---8--7---|
A|---------------9---8---7---|-6----7---8----9-----------|---------------------------|
E|---------------------------|---------------------------|---------------------------|


E|---------------------||------------------------------------|-------------------------------------|
B|---------------------||o-----------------------------------|-------------------------------------|
G|----------------5--6-||------------------------------------|-------------------7--7--9---7--7--9-|
D|-6---7---8---9-------||------------------------------------|-----------7--7--9-------------------|
A|---------------------||o------------------5--5--7--5--5----|-7--7--10----------------------------|
E|---------------------||--0--0--3--5--5--7----------------7-|-------------------------------------|

    _____________       ________________
   |1,2,3,4        x4  |5
E|--------|--------|||--------------------------------------|-----------------------------------||
B|--------|-5-----o|||o-------------------------------------|----------------------------------o||
G|--------|-4------|||--------------------------------------|-----------------------------------||
D|-2------|-2------|||--7---7---7--7--7---7---7---7--7--7---|-9---9---9--9--9---10--10--12--12--||
A|-2------|-2-----o|||o-7---7---7--7--7---7---7---7--7--7---|-9---9---9--9--9---10--10--12--12-o||
E|-0------|-0------|||--5---5---5--5--5---5---5---5--5--5---|-7---7---7--7--7---8---8---10--10--||

  
                                                                             Shuffle Rhythmn
                                                                               PM-------------|
E||--------------------------------------|-----------------------------------||-----------------|
B||o-------------------------------------|----------------------------------o||-----------------|
G||--14--14--14-14-14--14--14--14-14-14--|-16--16--16-16-16--17--17--19--19--||-----------------|
D||--14--14--14-14-14--14--14--14-14-14--|-16--16--16-16-16--17--17--19--19--||-----------------|
A||o-12--12--12-12-12--12--12--12-12-12--|-14--14--14-14-14--15--15--17--17-o||-----------------|
E||--------------------------------------|-----------------------------------||-0-0-3-3-5-5-7-7-|

    PM------|
E|---------------------------------|--------|--------|---------------------------------|
B|---------------------------------|--------|--------|---------------------------------|
G|---------------------------------|--------|--------|---------------------------------|
D|---------------------------------|--------|--------|---------------------------------|
A|---------------------------------|--------|--------|---------------------------------|
E|-10--10--12--12--10--10--7---7---|-5------|--------|-0---0---3---3---5---5---7---7---|


E|---------------------------------|--------|--------|
B|---------------------------------|--------|--------|
G|---------------------------------|--------|--------|
D|---------------------------------|--------|--------|
A|---------------------------------|--------|--------|
E|-10--10--12--12--10--10--7---7---|--------|--------|



| /  slide up
| \  slide down
| h  hammer-on
| p  pull-off
| ~  vibrato
| +  harmonic
| x  Mute note
===============================================================================
Note: This tab was edited by me from an ASCII file created by me from the 
tuxguitar open source tab editor for windows.
you can download it free from: http://www.tuxguitar.com.ar/
Tap to rate this tab
# A B C D E F G H I J K L M N O P Q R S T U V W X Y Z