Song name
# A B C D E F G H I J K L M N O P Q R S T U V W X Y Z

Melvins - The Kicking Machine tab

Artist: Melvins
Song: The Kicking Machine
Album: Nude with Boots

Standard Tuning


Riff 1 (Timing varies, listen to the song) x6
--------------------------------------------------------------|
-------------------------------------------------------------o|
--------------------------------------------------------------|
----9------------7--6--7--6--7--6--------5--4----------------o|
----7-----------------------------7----7-------5--7--5--7-----|
--------------------------------------------------------------|


Riff 2 (1:05)
---------------------------------------------------------|
---------------------------------------------------------|
---------------------------------------------------------|
----9-----9-----7-----10----7----9-----------------------|
----7-----7-----5------8----5----7-----------------------|
---------------------------------------------------------|

Riff 1 (x2)


Riff 3 (1:30) (x4)
-------------------------------------------------------------|
-------------------------------------------------------------|
-------------------------------------------------------------|
-------------------5--4--------------------------------------|
----7--5--7--5--7--------5-----------------------------------|
-------------------------------------------------------------|


Bridge
--------------------------------|-----------------------------|
--------------------------------|-----------------------------|
--------------------------------|o----------------------------|
--------------------------------|o----------------------------|
---7--5--7--5--7--5--7--5--7--5-|----------7-7-7-5-5-5-9-9-9--|
--------------------------------|---0-0-0---------------------|


						x4
---------------------------------------------------|---|
---------------------------------------------------|---|
--------------------------------------------------o|---|
--------------------------------------------------o|---|
--5-5-4-4------5-5-----4-4---5-5-----4-4--5-5------|---|
-----------0-0-----0-0-----------0-0---------------|---|

---17-17-17-17-17-17-17-16------------------17-17-17-17-17-16-------|
---------------------------17---------------------------------17----|
--------------------------------------------------------------------|
--------------------------------------------------------------------|
--------------------------------------------------------------------|
--------------------------------------------------------------------|

----------------------------------------------------------------------|
----------------------------------------------------------------------|
----------------------------------------------------------------------|
----------------------------------------------------------------------|
---7-7-7-8-8-8-5-5-5-10-10-10-8-8-8-----------------------------------|
---5-5-5-6-6-6-3-3-3---8--8---8-6-6-6---------------------------------|
Tap to rate this tab
 
# A B C D E F G H I J K L M N O P Q R S T U V W X Y Z