Song name
# A B C D E F G H I J K L M N O P Q R S T U V W X Y Z

Melvins - Dies Iraea tab

Band:The Melvins

Song:Dies Iraea

Album:Nude With Boots

Tabbed By:Shane Davis

Tuning:Standard


Intro
e-------------------------------------|
b-------------------------------------|
G-------------------------------------|
D-7~~~~~~~~7~~~~~~~~7~~~~~~~~7~~~~~~~~|
A-7~~~~~~~~7~~~~~~~~7~~~~~~~~7~~~~~~~~|
E-5~~~~~~~~5~~~~~~~~5~~~~~~~~5~~~~~~~~|


Riff 1:Guitar
e-------------------------------------------------------------------|
b-------------------------------------------------------------------|
G-------------------------------------------------------------------|
D------------------------------------------------------------7-7~~~~|
A-3--2--3--0--2-----0--0--0--3--3--5--3--2--0-----2--3--2~~~~7-7~~~~|
E----------------3-----------------------------3-------------5-5~~~~|


Riff 1:Guitar(With Bass)
e----------------------------------------------------------------|
b----------------------------------------------------------------|
G----------------------------------------------------------------|
D---------------------------------------------------------7-7~~~~|
A-3--2--3--0--2-----0--0--3--3--5--3--2--0-----2--3--2~~~~7-7~~~~|
E----------------3--------------------------3-------------5-5~~~~|


Riff 1:Bass
G----------------------------------------------------------------|
D-----------------------------------------------------------7~~~~|
A-3--2--3--0--2-----0--0--3--3--5--3--2--0-----2--3--2~~~~-------|
E----------------3--------------------------3-------------5------|


Riff 2:Guitar
e--------------------------------------------|
b--------------------------------------------|
G--------------------------------------------|
D---------------------------------------7~~~~|
A-7--10--10--9--5--7--7--5--3--5--7--7--7~~~~|
E---------------------------------------5~~~~|
Tap to rate this tab
 
# A B C D E F G H I J K L M N O P Q R S T U V W X Y Z