Song name
# A B C D E F G H I J K L M N O P Q R S T U V W X Y Z

Melvins - Hooch tab

The other tab is too complicated , it's a very basic song if you've seen Buzz play it

Verse
--------------------------------------------------------------------|
--------------------------------------------------------------------|
--------------------------------------------------------------------|
---------------------6--7--------0----------------------------------|
---------------------4--5--------0----------------------------------|
--0-0-0-0-0-0-0-0-0-------0-0-0-0-0---------------------------------|

Note sure exactly when the open D falls , just play along with the song and you'll hear
it , i think it does 2 of them in a row somewhere later in the song too.

Lead into chorus
----------------------------|
----------------------------|
----------------------------|
--6-6-5-6-5-6-5-5-5-0--3/5--|It sounds like the chorus , but it kinda cuts short
--6-6-5-6-5-6-5-5-5-0--3/5--|
--6-6-5-6-5-6-5-5-5-0--3/5--|

Chorus
--------------------------------------------------------------------|
--------------------------------------------------------------------|
--------------------------------------------------------------------|
-6--6-5-6-5-6-5-5-5-5-5-0-5-0-3--0------------3/5-------------------|
-6--6-5-6-5-6-5-5-5-5-5-0-5-0-3--0------------3/5-------------------| This repeats 4 times
-6--6-5-6-5-6-5-5-5-5-5-0-5-0-3--0--0--0--0---3/5-------------------|
Pretty much exactly what the vocals are doing


after the chorus Buzz still sings "Find a ree Land"
---------------------------------------------------------------------------|
---------------------------------------------------------------------------|
---------------------------------------------------------------------------|
------------3---0----------------------------------------------------------|
------------3---0----------------------------------------------------------|
-0-0-0-0-0--3---0----------------------------------------------------------|
         Find a   ree land

Don't ask me about the lyrics , Buzz is a weird guy or the guy who figured out the
lyrics on the web is weird. Hope this helps!
Tap to rate this tab
 
# A B C D E F G H I J K L M N O P Q R S T U V W X Y Z