Guitaretab - guitar tabs
Song name
# A B C D E F G H I J K L M N O P Q R S T U V W X Y Z

Melvins - Copache tab

Artist: The Melvins
Song: Copache
Album: Houdini
Tabbed by: King Buzzo
Tuning: Standard

(Distortion)  Play this 8 times
|-----------------------|
|-----------------------|
|-----------------------|
|-----------------------|
|-4---0-2-3-2-0---------|
|---2-----------2-------|


|---------|---------|---------|---------|---------|
|---------|---------|---------|---------|---------|
|---------|---------|---------|---------|---------|
|-4--4--4-|-4--4--4-|-4--4--4-|-4--4--4-|-4--4--4-|
|-4--4--4-|-4--4--4-|-4--4--4-|-4--4--4-|-4--4--4-|
|-2--2--2-|-2--2--2-|-2--2--2-|-2--2--2-|-2--2--2-|

|---------|-------------------|
|---------|-------------------|
|---------|-------------------|
|-4--4--4-|-4--4--4--4--------|
|-4--4--4-|-4--4--4--4--------|
|-2--2--2-|-2--2--2--2--------|

                     Play this 7 times
|-------------------|---------------|
|-------------------|---------------|
|-------------------|---------------|
|-------------------|---------------|
|-----0-2-3-2-0-----|-4---0-3-2-0---|
|-2-2-----------2---|---2---------2-|

 Then play this three times
|--------------|---------------|--------------|-2-1------------|
|--------------|-----------3---|-2---------2--|-----3-2-----2--|
|--------------|---------------|--------------|----------------|
|------2---2-4-|-5--5-4--4-----|--------------|----------------|
|-4--4---------|---------------|--------------|----------------|
|--------------|---------------|--------------|----------------|
[ Tab from: http://www.guitaretab.com/m/melvins/34809.html ]
 Play this twice
|-------------|-----------|-------------|----------------------|
|------0------|-----------|------0------|----------------------|
|-0-----------|-----------|-0-----------|----------------------|
|-----------2-|---------2-|-----------2-|--4-------------------|
|-------------|-----------|-------------|----------------------|
|-------------|-----------|-------------|----------------------|
Iím not really sure about this part but this is how I play it
So here we go!

 Play this twice
|---------------|---------------|---------------|---------------|
|---------------|---------------|---------------|---------------|
|---------------|---------------|---------------|---------------|
|5--xxx4--4-4-4-|5--xxx4--4-4-4-|5--xxx4--4-4-4-|5--xxx4--4-4-4-|
|---------------|---------------|---------------|---------------|
|---------------|---------------|---------------|---------------|

 Play this twice
|---------------|---------------|---------------|---------------|
|---------------|---------------|---------------|---------------|
|---------------|---------------|---------------|---------------|
|-4----4--5-4-5-|-4----4--5-4-5-|-4----4--5-4-5-|-4----4--5-4-5-|
|---------------|---------------|---------------|---------------|
|---------------|---------------|---------------|---------------|

 Play this 8 times
|-------------------------------|
|-------------------------------|
|---------4---------5-----------|
|-4-4-5-5-4-4-4-5-5-5-----------|
|-4-4-5-5-2-4-4-5-5-3-----------|
|-2-2-3-3---2-2-3-3-------------|

This song is really cool, Buzz Osbourne plays it really fast!
Listen to the song for the timing.
Related for Copache tab