Song name
# A B C D E F G H I J K L M N O P Q R S T U V W X Y Z

Melvins - Berthas tab

 Berthas by the Melvins
	     album: Stag
                   bennield@hotmail.com

Shuffle Rhythm


 INTRO - REPEAT  2X

  7/8						             4/4
   1   2   3   4   1   2   3     1   2   3   4   1   2   3  | 1   2   3   4
E -----------------------------|----------------------------|----------------|
B -----------------------------|----------------------------|----------------|
G -----------------------------|----------------------------|----------------|
D -----------------------------|----------------------------|----------------|
A -------------------2---0---X-|-------------------2---0---0|--X-------------|
E -2-0-2-5---0-2-0-2-----------|-0-0-1--2--0-2-0-2----------|----0-0-1-2---X-|


 VERSE

  4/4
E ---------------------------------|-------------------------------|
B ---------------------------------|-------------------------------|
G ---------------------------------|-------------------------------|
D ---------------------------------|-------------------------------|
A -4-4-4-4-4-4-4-4-4-4-4-4-4-4-4-7-|-7-7-7-7-7-7-2---2-2-2-2-3-4-4-|   X3
E -2-0-2-0-2-0-2-0-2-0-2-0-2-0-2-5-|-5-5-5-5-5-5-0---0-0-0-0-1-2-0-|

E ---------------------------------|-------------------------------|
B ---------------------------------|-------------------------------|
G ---------------------------------|-------------------------------|
D ---------------------------------|-------------6-6-6-6-6-6---9---|
A -4-4-4-4-4-4-4-4-4-4-4-4-4-4-4-2-|-2-2-2-2-2-2-4-4-4-4-4-4---7---|
E -2-0-2-0-2-0-2-0-2-0-2-0-2-0-2-0-|-0-0-0-0-0-0-------------------|


 RIFF 1

E ---------------------------------|-------------------------------|
B ---------------------------------|-------------------------------|
G -6-------------------------------|-0-4-0-2-0---0-4---------------|
D -4-----X-6-6---7-------X-6-6-----|-----------4-----0-4---6---9---|
A -------X-4-4---5-------X-4-4-7-4-|---------------------0-4---7---|
E -----------------------------5-2-|-------------------------------|

E -----------------------------|
B -----------------------------|
G -6---------------------------|
D -4-----X-6-6---7-------------|
A -------X-4-4---5---X---------|       THEN GO BACK TO VERSE
E ---------------------0-0-1-2-|


 ENDING RIFF

E ---------------------------------|-------------------------------|
B ---------------------------------|-------------------------------|
G -6-------------------------------|-0-4-0-2-0---0-4---------------|
D -4-----X-6-6---7-------X-6-6-----|-----------4-----0-4---6---9---|
A -------X-4-4---5-------X-4-4-7-4-|---------------------0-4---7---|
E -----------------------------5-2-|-------------------------------|

E ---------------------------------|-------------------------------|
B ---------------------------------|-------------------------------|
G -6-------------------------------|-------------------------------|
D -4-----X-6-6---7---4-7-6---4-4-6-|---------2-6-4---4-4-4---4-4---|
A -------X-4-4---5---2-5-4---0-2-4-|---------0-4-2---2-0-2---2-0-4-|
E ---------------------------------|-----------------------------2-|
Tap to rate this tab
 
# A B C D E F G H I J K L M N O P Q R S T U V W X Y Z