Song name
# A B C D E F G H I J K L M N O P Q R S T U V W X Y Z

Melvins - Ever Since My Accidnet tab

Artist - Melvins
Song - Ever Since My Accident
Album - Ozma/Gluey Porch Treatments
Tabbed by an18nin18

Drop D Tuning - D, A, D, G, B, E

Intro
                                       1|                      2|
|-------|-------------------------|-----|-----------------------|
|-------|-------------------------|-----|-----------------------|
|-6~~-^-|-------------------------|-----|-----------------------|
|-------|-4~~-4-4-4-5---4~~-4-4-4-|-6-5-|-7-6-7-5-6-4-0-1-1-1-4-|
|-------|-4~~-4-4-4-5---4~~-4-4-4-|-6-5-|-7-6-7-5-6-4-0-1-1-1-4-|
|-------|-4~~-4-4-4-5---4~~-4-4-4-|-6-5-|-7-6-7-5-6-4-0-1-1-1-4-|
        | Play x 2    
          
|-------------------------------------------------|
|-------------------------------------------------|
|-------------------------------------------------|
|-------------------------------------------------|
|-5-5-5-5-5-5-5-5-5-5-5-5-5-5-5-5-5-5-5-5-5-5-5-5-|
|-------------------------------------------------|

Verse
                                                |                           1|
|-------------------|---------|---------|-------|-----------|----------------|
|-------------------|---------|---------|-------|-----------|----------------|
|-------------------|---------|---------|-------|-----------|---------5^-<5>-|
|-0-1-1-1-4---0---4-|-0-1-1-1-|-5~~-6~~-|-8---6-|-0-1-1-1-4-|-6-6-6-6--------|
|-0-1-1-1-4---0---4-|-0-1-1-1-|-5~~-6~~-|-8---6-|-0-1-1-1-4-|----------------|
|-0-1-1-1-4---0---4-|-0-1-1-1-|-5~~-6~~-|-8---6-|-0-1-1-1-4-|----------------|
  Play x 2          |         | Play x 4| x 3   | Play x 2                PH
                     2|
|---------------------|--------------------|
|---------------------|--------------------|
|-6-0-5-0-------------|--------------------|
|---------5-0-x-x-x-x-|-0-1-1-1----0-------|
|---------------------|-0-1-1-1----0-------|
|---------------------|-0-1-1-1-4^-0---<5>-|

Outro
                               1|                                          2|
|-------------------------|-----|-------------------------------------------|
|-------------------------|-----|-------------------------------------------|
|-------------------------|-----|-------------------------------------------|
|-4~~-4-4-4-5~~-4~~-4-4-4-|-6-5-|-7-6-7-6-5-7-6-5-4-6-5-4-------------------|
|-4~~-4-4-4-5~~-4~~-4-4-4-|-6-5-|-7-6-7-6-5-7-6-5-4-6-5-4-5-5-5-5-5-5-5-5---|
|-4~~-4-4-4-5~~-4~~-4-4-4-|-6-5-|-7-6-7-6-5-7-6-5-4-6-5-4-----------------4-|
  Play x 2

And Thats it.

If you have any comments contact me at c.norman83@ntlworld.com.
Tap to rate this tab
 
# A B C D E F G H I J K L M N O P Q R S T U V W X Y Z