Song name
# A B C D E F G H I J K L M N O P Q R S T U V W X Y Z

Melvins - Claude tab

-----------------------------------------------------------------------------
                           CLAUDE  - Melvins
-----------------------------------------------------------------------------
Tabbed by an17nin17 (or an18nin18)
Email - c.norman83@ntlworld.com

Drop D Tuning - D, A, D, G, B, E

Intro

|------------------|----------------------------------------------------|
|------------------|----------------------------------------------------|
|------------------|----------------------------------------------------|
|-5-4-3-0---3^~~-0-|----------------------------0--0------3-----5-5-4-3-|
|-5-4-3-0---3^~~-0-|-<5>---0-11-12--11--7~~-----0--0----3-----5---------|
|-5-4-3-0---3^~~-0-|------------------------7~~-0--0--3-----5-----------|
  PM.....          | Play x 2

|---------------|---------------------------------|
|---------------|---------------------------------|
|---------------|---------------------------------|
|---------------|---------------------------------|
|-5-4-3---------|---------------------2-1---------|
|-------5-4-3-0-|-2~~-1~~-0-0-2~~-1~~-----1~~-0-0-|
                | Play x 3

Verse
              1,3|          2,4|
|--------|-------|-------------|
|--------|-------|-------------|
|--------|-------|-------------|
|--------|-------|-------------|
|-3^~~-0-|-5~~-0-|---4-5-5~~-0-|
|-3^~~-0-|-5~~-0-|-0-----5~~-0-|

Outro

|------------------------------------------------------------------------|
|------------------------------------------------------------------------|
|------------------------------------------------------------------------|
|-------------------------------0--0-----3-----5-----3-----5-----3-----5-|
|-3^~~-0---0-11-12--11--7~~-----0--0---3-----5-----3-----5-----3-----5---|
|-3^~~-0--------------------7~~-0--0-3-----5-----3-----5-----3-----5-----|

And Thats's It.
Tap to rate this tab
 
# A B C D E F G H I J K L M N O P Q R S T U V W X Y Z