Song name
# A B C D E F G H I J K L M N O P Q R S T U V W X Y Z

Melvins - Creepy Smell tab

-----------------------------------------------------------------------------
                        CREEPY SMELL - Melvins
-----------------------------------------------------------------------------

Tabbed by an17nin17
Email - c.norman83@ntlworld.com

Drop D Tuning - D, A, D, G, B, E

Intro

|-------|-----------------------------|---------------------|
|-------|-----------------------------|---------------------|
|-VOICE-|-----------------------------|---------------------|
|--AND--|-----------------------------|-6~~-----------------|
|-DRUMS-|-----------------------------|-6~~-5-----5-----5---|
|-------|-6-6-6-6-6-6-6-6-6-6-6-6-6-6-|-6~~---6-6---6-6---6-|
          PM......................... | Play x 4

|-----|-----------------------------|
|-----|-----------------------------|
|-----|-----------------------------|
|-----|-----------------------------|
|-2-2-|-8-9-8-7-8-7-6-7-6-5-6-5-4-5-|
|-2-2-|-8-9-8-7-8-7-6-7-6-5-6-5-4-5-|

Verse

|---------------------|-----|-----------------------------|
|---------------------|-----|-----------------------------|
|---------------------|-----|-----------------------------|
|-6~~-----------------|-----|-----------------------------|
|-6~~-5-----5-----5---|-2-2-|-8-9-8-7-8-7-6-7-6-5-6-5-4-5-|
|-6~~---6-6---6-6---6-|-2-2-|-8-9-8-7-8-7-6-7-6-5-6-5-4-5-|
  Play x 4            |

|-----|-------------------------|---------------------|-------------------|
|-----|-------------------------|---------------------|-------------------|
|-----|-------------------------|---------------------|-------------------|
|-----|-5~~---------------------|---------------------|-------------------|
|-2-2-|-5~~---5-4-2---8-7-5-4-2-|-5---5-4-2-8-7-5-4-2-|-5-5---5-4-2-8-7-5-|
|-2-2-|-5~~---5-4-2---8-7-5-4-2-|-5---5-4-2-8-7-5-4-2-|-5-5---5-4-2-8-7-5-|

|---------------|-----------------------------|
|---------------|-----------------------------|
|---------------|-----------------------------|
|---------------|-----------------------------|
|-4-2-5-x-5-5-5-|-2---2-2-2-5-5-2-2-2-2-5-2-7-|
|-4-2-5-x-5-5-5-|-2---2-2-2-5-5-2-2-2-2-5-2-7-|

Outro

|-------------------------|---------------------|
|-------------------------|---------------------|
|-------------------------|---------------------|
|-----1-0-----------------|---------------------|
|-1-0-----5---6-6-5-5-4-2-|-7-6-5---2---5-4-3-2-|
|---------5---6-6-5-5-4-2-|-7-6-5---2---5-4-3-2-|
  Play x 3                | 

Contact me if you want any more tabs or have any comments.
Tap to rate this tab
 
# A B C D E F G H I J K L M N O P Q R S T U V W X Y Z