Song name
# A B C D E F G H I J K L M N O P Q R S T U V W X Y Z

Melvins - Kool Legged tab

-----------------------------------------------------------------------------
                       KOOL LEGGED - Melvins
-----------------------------------------------------------------------------

Tabbed by an17nin17
Email - c.norman83@ntlworld.com

Standard Tuning - E, A, D, G, B, E 

Intro/Verse 

|-------------------------------------------------------------------| 
|-------------------------------------------------------------------| 
|-------------------------------------------------------------------| 
|-------------------------------------------------------------------| 
|-----9-9-9-9-9-9-9-9-9-9-9-9-9-9-7------7------7------7------7-9-9-| 
|-7---7-7-7-7-7-7-7-7-7-7-7-7-7-7-5-8^~~-5-8^~~-5-8^~~-5-8^~~-5-7-7-| 
      PM......................... 
  Play x 3 

|--------------------------------------------------| 
|--------------------------------------------------| 
|--------------------------------------------------| 
|--------------------------------------------------| 
|-9-9-9-9-9-9-9-9-9-9-9-9-9-9-7------7------7------| 
|-7-7-7-7-7-7-7-7-7-7-7-7-7-7-5-8^~~-5-8^~~-5-8^~~-| 

Outro 

|-----------------------------------------------------------------------| 
|-----------------------------------------------------------------------| 
|-----------------------------------------------------------------------| 
|--------------------------------------------10-------------------------| 
|-9---9-9-9-9-9-7-8-7-9-7-8~~-8-7-10---10-10----9~~-9-10----------------| 
|-7---7-7-7-7-7-----------------5-8----8--8--------------9-10-13-14-8~~-| 
  Play x 2 

|----------| 
|----------| 
|----------| 
|----------| 
|-9-9-9^~~-| 
|-7-7-7^~~-| 
  ^at a guess a whammy bar dive, but then again Buzz plays Gibson
Les Paul's which don't have whammy bars.

Contact me if you want any tabs or have comments about this one.
Tap to rate this tab
# A B C D E F G H I J K L M N O P Q R S T U V W X Y Z