Song name
# A B C D E F G H I J K L M N O P Q R S T U V W X Y Z

Melvins - Cranky Messiah tab

-----------------------------------------------------------------------------
                       CRANKY MESSIAH - Melvins
-----------------------------------------------------------------------------

Tabbed by an17nin17
Email - c.norman83@ntlworld.com

Drop D Tuning - D, A, D, G, B, E 

Intro 

|----------------------------------|-------------------------------------| 
|----------------------------------|-------------------------------------| 
|----------------------------------|-------------------------------------| 
|-0-12~~-0-12~~-/12-11-0-14~~-0-15-|-0-1-6-6-6-6-5-5-0-1/8-6-6-6-6-6-6-5-| 
|-0-12~~-0-12~~-/12-11-0-14~~-0-15-|-0-1-6-6-6-6-5-5-0-1/8-6-6-6-6-6-6-5-| 
|-0-12~~-0-12~~-/12-11-0-14~~-0-15-|-0-1-6-6-6-6-5-5-0-1/8-6-6-6-6-6-6-5-| 
  Play x 3                         | 

|-------------------------------------------------| 
|-------------------------------------------------| 
|-------------------------------------------------| 
|-----5~~-----5~~-----5~~-----5~~-----5~~-----5~~-| 
|-5~~-----5~~-----5~~-----5~~-----5~~-----5~~-----| 
|-------------------------------------------------| 

Verse 

|-------------------------------------------------------------------| 
|-------------------------------------------------------------------| 
|-------------------------------------------------------------------| 
|-6-6-6-6-6-6-6-6-6-6-6-6-6-6-6-6-6-6-6-6-6-6-6-6-6-6-6-6-6-6-6-6-5-| 
|-6-6-6-6-6-6-6-6-6-6-6-6-6-6-6-6-6-6-6-6-6-6-6-6-6-6-6-6-6-6-6-6-5-| 
|-6-6-6-6-6-6-6-6-6-6-6-6-6-6-6-6-6-6-6-6-6-6-6-6-6-6-6-6-6-6-6-6-5-| 

|-------------------------------------------------| 
|-------------------------------------------------| 
|-------------------------------------------------| 
|-----5~~-----5~~-----5~~-----5~~-----5~~-----5~~-| 
|-5~~-----5~~-----5~~-----5~~-----5~~-----5~~-----| 
|-------------------------------------------------| 

|-----------------------------------------------------------------| 
|-----------------------------------------------------------------| 
|-----------------------------------------------------------------| 
|-6-6-6-6-6-6-6-6-6-6-6-6-6-6-6-6-6-6-6-6-6-6-6-6-6-6-6-6-6-6-6-6-| 
|-6-6-6-6-6-6-6-6-6-6-6-6-6-6-6-6-6-6-6-6-6-6-6-6-6-6-6-6-6-6-6-6-| 
|-6-6-6-6-6-6-6-6-6-6-6-6-6-6-6-6-6-6-6-6-6-6-6-6-6-6-6-6-6-6-6-6-| 

Outro 

|---------------------------------|--------------------|------------------| 
|---------------------------------|--------------------|------------------| 
|---------------------------------|--------------------|------------------| 
|-0-0-0-0-1-0-1-/6~~-5---0-1-/4-3-|-0-0-0-0-1-0-1-/4-3-|-0-1-/4-0-3-3-4-1-| 
|-0-0-0-0-1-0-1-/6~~-5---0-1-/4-3-|-0-0-0-0-1-0-1-/4-3-|-0-1-/4-0-3-3-4-1-| 
|-0-0-0-0-1-0-1-/6~~-5---0-1-/4-3-|-0-0-0-0-1-0-1-/4-3-|-0-1-/4-0-3-3-4-1-| 
  Play x 2                        | 

|----------|------------------| 
|----------|------------------| 
|----------|------------------| 
|-0-1-/4-3-|-0-1-/4-0-3-3-4-1-| 
|-0-1-/4-3-|-0-1-/4-0-3-3-4-1-| 
|-0-1-/4-3-|-0-1-/4-0-3-3-4-1-|

Contact me if you have any comments about this tab.
Tap to rate this tab
# A B C D E F G H I J K L M N O P Q R S T U V W X Y Z