Song name
# A B C D E F G H I J K L M N O P Q R S T U V W X Y Z

Melvins - For You Darling tab

"For You Darling" by The Melvins

==ben.nield@gmail.com==
 
 
Intro

e---------------------------------|---------------------------------|
b---------------------------------|---------------------------------|
g---------------------------------|---------------------------------|
d---------------------------------|---------------------------------|
a-----------------7-------7---5---|-----5-------5---4---5-----------|
e-0-------0---0-------------------|-------------------------5-------|
                                                        PH  - Pinch Harmonic

e---------------------------------|---------------------------------| 
b---------------------------------|---------------------------------|
g---------------------------------|---------------------------------|
d---------------------------------|---------------------------------|
a-----------------7-------7---5---|-----5-------5-------5---5---5---|
e-0-------0---0-------------------|---------------------------------|
                  PH                                              

Riff 1

e---------------------------------|---------------------------------|
b---------------------------------|---------------------------------|
g---------------------------------|---------------------------------|
d-----------------9-------9---7---|-----7-------7---2---7-----------|
a-2-------2---2---7-------7---5---|-----5-------5---4---5---7-------|
e-0-------0---0-------------------|-------------------------5-------|


e---------------------------------|---------------------------------|
b---------------------------------|---------------------------------|
g---------------------------------|---------------------------------|
d-----------------9-------9---7---|-7---7---7---7---7---7---7-------|
a-2-------2-------7-------7---5---|-5---5---5---5---5---5---5-------|
e-0-------0-----------------------|-0---0---0---0---0---0---0-------|


Riff 2
e---------------------------------|---------------------------------|
b---------------------------------|---------------------------------|
g---------------------------------|---------------------------------|
d---------------------------------|---------------------------------|
a-7---7---7---7---7---8-------4---|-----4---4---4---4---5-----------|
e-5---5---5---5---5---6-------2---|-----2---2---2---2---3-----------|
  .   .   .   .   .                     .   .   .   .
                                            
Then Riff 1, then Riff 2, etc 4x     
Then Riff 1 4x                                        


Riff 3 (2x)
e---------------------------------|---------------------------------|
b---------------------------------|---------------------------------|
g---------------------------------|---------------------------------|
d-2---3---4---5-------5-------5---|-5---4---2---2--------2----------|
a-0---1---2---3-------3-------3---|-3---2---1---0--------0----------|
e---------------------------------|---------------------------------|


Ending
e---------------------------------|---------------------------------|
b---------------------------------|---------------------------------|
g---------------------------------|---------------------------------|
d---------------------------------|-5-------------------------------|
a-5-------------------------------|-7-------------------------------|
e-3-------------------------------|---------------------------------|


Been my good friend
With eyes a-dripping
That's right a fake man
Can you see me?
Tight little woman
Bring me siren
With which my reason
For you my darling
What planes will never believe
What planes will never believe
And I'm losing one of my jubilent hands
I'm losing my heart, I'm losing your head 
So...
Tap to rate this tab
# A B C D E F G H I J K L M N O P Q R S T U V W X Y Z