Song name
# A B C D E F G H I J K L M N O P Q R S T U V W X Y Z

Melvins - Bitten Into Sympathy tab

Melvins - Bitten Into Sympathy

Tuning: Standard (E A D G B E)

~=Let ring


Intro
E|---------------------------------------------------------------------------||
B|---------------------------------------------------------------------------||
G|---------------------------------------------------------------------------||
D|-2---4--44-----------------------------------------------------------------||
A|-2---4--44---4--------5----------------------------------------------------||
E|-0---2--22-----3~--2-----4~------------------------------------------------||
         \PM/                 Do this 4x I think
Main Riff
E|---------------------------------------------------------------------------||
B|---------------------------------------------------------------------------||
G|---------------------------------------------------------------------------||
D|-2--22--2--22--22--4---2--44-----------------------------------------------||
A|-2--22--2--22--22--4---2--44--4--------5-----------------------------------||
E|-0--00--0--00--00--2~--0--22----3~--2----4~--------------------------------||
     \PM/   \PM/           \PM/      Do this riff a bunch of times

That's about it. There's one part that I can't
figure out. It's the ending but it sounds like it's
just another version of the main riff. Just with slides
and stuff.
Tap to rate this tab
 
# A B C D E F G H I J K L M N O P Q R S T U V W X Y Z