Song name
# A B C D E F G H I J K L M N O P Q R S T U V W X Y Z

Melvins - Exact Paperbacks tab

Melvins - Exact Paperbacks

Tuning: Standard (E A D G B E)

Intro The ()=Palm mute
E|--------------------------------------|
B|--------------------------------------|
G|----------------------------8-------8-|
D|-(7777)-7-(7)-7-(7)-7-(777)-8-(777)-8-|
A|-(7777)-7-(7)-7-(7)-7-(777)-6-(777)-6-|
E|-(5555)-5-(5)-5-(5)-5-(555)---(555)---|

Verse
E|--------------------------------------|
B|--------------------------------------|
G|--------------------------------------|
D|-(7777)-7-(7)-7-(7)-7-(777)-8-(777)-8-|
A|-(7777)-7-(7)-7-(7)-7-(777)-8-(777)-8-|
E|-(5555)-5-(5)-5-(5)-5-(555)-6-(555)-6-|

End
E|--------------|
B|--------------|
G|--------------|
D|-2--4--3333-2-|
A|-2--4--3333-2-|
E|-0--2--1111-0-|

Outro
E|-----------------|
B|-----------------|
G|-----------------|
D|-2--44443333~--2-|
A|-2--44443333~--2-|
E|-0--22221111~--0-|
Tap to rate this tab
# A B C D E F G H I J K L M N O P Q R S T U V W X Y Z