Song name
# A B C D E F G H I J K L M N O P Q R S T U V W X Y Z

Melvins - Jew Boy Flower Head tab

Melvins - Jew Boy Flower Head

ben.nield@gmail.com


^^full bend
^ bend
\ slide
~ hold

swing rhythm


bassline throughout entire song -
(guitar occasionally joins in quietly):

G---------------------------------|-----------------|
D---------------------------------|-----------------|
A---------------------------------|-5-----------7---|
E-0-----3-----0-----5-----7---6---|-------7---5-----|


main guitar part:

  1   2   3   4   1   2   3   4     1   2   3   4
E---------------------------------|-----------------|
B---------------------------------|-----------------|
G---------------------------------|-----------------|
D-5^------------------------------|-5-4--/7---------|
A-----5-7^------------------------|-----5---6-7-----|
E---------------------------------|---------------0-|

  1   2   3   4   1   2   3   4     1   2   3   4
E---------------------------------|-7^^-------------|
B---------------------------------|-------5^^-------|
G---------------------------------|-----------------|
D---------------------------------|-----------------|
A-----8---------------------------|-----------------|
E-7^^---7^------------------------|-----------------|

  1   2   3   4   1   2   3   4     1   2   3   4
E-3--3----------------------------|-----------------|
B-3--3----------------------------|-----------------|
G---------------------------------|-----------------|
D---------------7^--5-----------7^|---5^--5^--------|
A---------------------7-----------|-----------5-7---|
E---------------------------------|-----------------|

"Liar........."

"....it's later than you think....."

E---------|-------------|---------|-----------------|
B---------|-------------|---------|-----------------|
G---------|-------------|---------|-----------------|
D-5(13x)--|-------0-5-0-|-7(12x)--|-----------------|
A-3-------|-5\7---0-3-0-|-5-------|-----------------|
E---------|-3\5---------|-------0-|-3~~---2-----6---|

E---------3-------3-------3-------3-------3-------3--------3--------|
B-----5-------5-------5-------5-5-----5-------5--------5-------5~~~-|
G-------------------------------------------------------------------|
D-------------------------------------------------------------------|
A-------------------------------------------------------------------|
E-0-----------------------------------------------------------------|

Repeat all the above.
End with intro.
Tap to rate this tab
 
# A B C D E F G H I J K L M N O P Q R S T U V W X Y Z