Song name
# A B C D E F G H I J K L M N O P Q R S T U V W X Y Z

Melvins - Bricklebrit tab

Band: Melvins
Album: Joe Preston
Composer: Joe Preston

all down strokes for the whole song


Eb|--------------------------------------|
Bb|--------------------------------------|
Gb|-------------6-5----------------------|   (x3)
Db|-66666666666-6-5--55555555555-5555555-|
Ab|-66666666666-4-3--55555555555-5555555-|
Eb|-44444444444------33333333333-3030303-|


Eb|---------------------------------------|
Bb|---------------------------------------|
Gb|-5-6-5-4-5-6-5-4-----------------------|
Db|-5-6-5-4-5-6-5-4--77777----------------|  (x1)
Ab|-3-4-3-2-3-4-3-2--77777----------------|
Eb|------------------55555----------------|


inbetween here there is some other noise.. i cant really make out any guitar parts there


Eb|--------------------------------------|
Bb|--------------------------------------|
Gb|-------------6-5----------------------|   (x3)
Db|-66666666666-6-5--55555555555-5555555-|
Ab|-66666666666-4-3--55555555555-5555555-|
Eb|-44444444444------33333333333-3030303-|


Eb|---------------------------------------|
Bb|---------------------------------------|
Gb|-5-6-5-4-5-6-5-4-----------------------|
Db|-5-6-5-4-5-6-5-4--77777----------------|  (x1)
Ab|-3-4-3-2-3-4-3-2--77777----------------|
Eb|------------------55555----------------|

that noise again

Eb|--------------------------------------|
Bb|--------------------------------------|
Gb|-------------6-5----------------------|   (x3)
Db|-66666666666-6-5--55555555555-5555555-|
Ab|-66666666666-4-3--55555555555-5555555-|
Eb|-44444444444------33333333333-3030303-|


Eb|---------------------------------------|
Bb|---------------------------------------|
Gb|-5-6-5-4-5-6-5-4-----------------------|
Db|-5-6-5-4-5-6-5-4--777777777777---------|    (x1)
Ab|-3-4-3-2-3-4-3-2--777777777777---------|
Eb|------------------555555555555---------|


Eb|----------------------------------------|
Bb|----------------------------------------|
Gb|----------------------------------------|
Db|-55555555555555555555555555555----------|   (x1)
Ab|-55555555555555555555555555555----------|
Eb|-77777777777777777777777777777----------|
Tap to rate this tab
 
# A B C D E F G H I J K L M N O P Q R S T U V W X Y Z