Guitaretab - guitar tabs
Song name
# A B C D E F G H I J K L M N O P Q R S T U V W X Y Z

Melvins - Dead Dressed tab

Artist - Melvins
Song - Dead Dressed
Album - Ozma/Gluey Porch Treatments
Tabbed by an18nin18

Drop D Tuning - D, A, D, G, B, E

Intro

|----------------------------------------------------------------------------|
|----------------------------------------------------------------------------|
|----------------------------------------------------------------------------|
|----------------------------------------------------------------------------|
|-11-11-12-<12>-11---11---11-11-<12>---11-11-12-<12>-11---11---11-11-0-3^-12-|
|-11-11-12-<12>-11---11---11-11-<12>---11-11-12-<12>-11---11---11-11-0-3^-12-|

Verse

|----------------------------------------------------------------------------------|
|----------------------------------------------------------------------------------|
|----------------------------------------------------------------------------------|
|----------------------------------------------------------------------------------|
|-11-11-11-11-11-11-11-11-11-11-11-11-11-11-11-11-11-11-11-11-11-11-11-11-11-11-12-|
|-11-11-11-11-11-11-11-11-11-11-11-11-11-11-11-11-11-11-11-11-11-11-11-11-11-11-12-|
     PM...............    PM.........    PM......    PM.........    PM.........
  Play x 4

|------------|
|------------|
|------------|
|------------|
|-11-0-11-11-|
|-11-0-11-11-|

Chorus
[ Tab from: http://www.guitaretab.com/m/melvins/62795.html ]
|-----------------------------------------------------------------|
|-----------------------------------------------------------------|
|-----------------------------------------------------------------|
|-----------------------------------------------------------------|
|-0-0-0-1-1-1-4-4-4-3-3-3-0-11-0-13-11-11-11-11-11-11-10-10-10-10-|
|-0-0-0-1-1-1-4-4-4-3-3-3-0-11-0-13-11-11-11-11-11-11-10-10-10-10-|
  Play x 4

Post Chorus
                                                 1|                                2|
|------------------------------------------|------|---------------------------------|
|------------------------------------------|------|---------------------------------|
|------------------------------------------|------|---------------------------------|
|------------------------------------------|------|---------------------------------|
|-2-2-2-2-2-3~~-2-2-2-2-2-3-4-3-2-2-11-0-0-|-11~~-|-12-12-12-12-12-12-0-0-12-0-0-12-|
|-2-2-2-2-2-3~~-2-2-2-2-2-3-4-3-2-2-11-0-0-|-11~~-|-12-12-12-12-12-12-0-0-12-0-0-12-|
  PM.......     PM.......

|----------------------------------------------------------------------------------|
|----------------------------------------------------------------------------------|
|----------------------------------------------------------------------------------|
|----------------------------------------------------------------------------------|
|-11-11-11-11-11-11-11-11-11-11-11-11-11-11-11-11-11-11-11-11-11-11-11-11-11-11-12-|
|-11-11-11-11-11-11-11-11-11-11-11-11-11-11-11-11-11-11-11-11-11-11-11-11-11-11-12-|
     PM...............    PM.........    PM......    PM.........    PM.........
  Play x 4

|------------|
|------------|
|------------|
|------------|
|-11-0-11-11-|
|-11-0-11-11-|

Outro

|-----------------------------------------------------|
|-----------------------------------------------------|
|-----------------------------------------------------|
|-----------------------------------------------------|
|-0-0-0-1-1-1-4-4-4-3-3-3-2-2-2-2-3---11-11-12-<12>~~-|
|-0-0-0-1-1-1-4-4-4-3-3-3-2-2-2-2-3---11-11-12-<12>~~-|
Related for Dead Dressed tab
Advertisement will be closed in 10 seconds