Song name
# A B C D E F G H I J K L M N O P Q R S T U V W X Y Z

Melvins - Grin tab

Melvins - Grin
Honky LP
 
   1   +   2   +   3   +   4   +     1   +   2   +   3   +   4   +   
e ---------------------------------|---------------------------------|
b ---------------------------------|---------------------------------|
g ---------------------------------|---------------------------------|
d -2-------------------------------|---------------------------------|
a -------2-ring----------------0-2-|-3-------------------------------|
E ---------------------------------|-------3-ring--------------------|

   1   +   2   +   3   +   4   +     1   +   2   +   3   +   4   +   
e ---------------------------------|---------------------------------|
b ---------------------------------|---------------------------------|
g ---------------------------------|---------------------------------|
d ---------------------------------|---------------------------------|
a -1-------------------------------|-5-----6-----7-------------------|
E -------1-----0------1----0-------|-----------------5-6-7\----------|
Tap to rate this tab
# A B C D E F G H I J K L M N O P Q R S T U V W X Y Z