Song name
# A B C D E F G H I J K L M N O P Q R S T U V W X Y Z

Melvins - Toy tab

  "Toy" by the Melvins

e------------------------------------------------------------------|
b------------------------------------------------------------------|
g----------------------------------------------------------4h5p4---|
d-2---2---0h2-2-2-2---2-2-3---2----3---2---0h2-2-2-3---2---------5-|
a------------------------------------------------------------------|
e------------------------------------------------------------------|

e------------------------------------------------------------------|
b------------------------------------------------------------------|
g------------------------------------------------------------------|
d-2---2---0h2-2-2-2---2-2-3---2----3---2---0h2-2-2-3-3-3-3-3-3-3-3-|
a------------------------------------------------------------------|
e------------------------------------------------------------------|

alternate then end on

e ------------------|
b ------------------|
g ------------------|
d ------------------|
A-------------------|
E-3-3-3-3-3-3-3-3-2-|
Tap to rate this tab
# A B C D E F G H I J K L M N O P Q R S T U V W X Y Z