Guitaretab - guitar tabs
Song name
# A B C D E F G H I J K L M N O P Q R S T U V W X Y Z

Melvins - Let It All Be tab

Melvins - LET IT ALL BE
	  guitar                     
	  standard tuning
	  4/4		

 w = wah-wah	b = bend 	m = mute
 h = hammer on	p = pull off

intro & verso

  m mmm m mm m m m  mm m m mmm m m  m mmm m mmm m m  m mmm m mm m m m
e|-----------------|---------------|----------------|-----------------|
b|-----------------|---------------|----------------|-----------------|
g|-----------------|---------------|----------------|-----------------|
d|-----------------|---------------|----------------|-----------------|
a|5-555-5-55-5-5-5-|55-5-5-555-6-6-|6-555-5-555-5-5-|5-555-5-55-8-8-8-|
E|-----------------|---------------|----------------|-----------------|
   

chorus

  /--------------------- with distortion ----------------------------\
e|-----------------|---------------|----------------|-----------------|
b|-----------------|---------------|----------------|-----------------|
g|-----------------|---------------|----------------|-----------------|
d|-----------------|---------------|----------------|-----------------|
a|5-555-5-55-5-5-5-|55-5-5-555-6-6-|6-555-5-555-5-5-|5-555-5-55-8-8-8-|
E|-----------------|---------------|----------------|-----------------|


bridge - part 1

  w                                 w     w
e|----------------|----------------|----------------|----------------|
b|----------------|----------------|----------------|----------------|
g|----------------|----------------|----------------|----------------|
d|6---------------|----------------|----------------|----------------|
a|----------------|----------------|5-----6---------|----------------|
E|----------------|----------------|----------------|----------------|

bridge - part 2
  w                        w w w w
e|----------------|----------------|----------------|----------------|
b|----------------|----------------|----------------|----------------|
g|7---------------|--------7-5-----|----------------|----------------|
d|----------------|------------7-6-|----------------|----------------|
a|----------------|----------------|----------------|----------------|
E|----------------|----------------|----------------|----------------|
[ Tab from: http://www.guitaretab.com/m/melvins/62816.html ]
  w www www w w            w w w w    w   w   w   b 
e|----------------|----------------|----------------|----------------|
b|----------------|----------------|----------------|----------------|
g|----------------|--------5---5-7-|--7---7---7---7-|----------------|
d|----------------|----------7-----|----------------|----------------|
a|7-667-667---5---|----------------|----------------|----------------|
E|----------8-----|----------------|----------------|----------------|



solo
   
e|----------------|----------------|----------------|----------------|
b|----9-----8-----|7-----8-----7---|----9-----8-----|7-----8-----7\--|
g|7-------7-----7-|----7-----7-----|7-------7-----7-|----7-----7-----|
d|----------------|----------------|----------------|----------------|
a|----------------|----------------|----------------|----------------|
E|----------------|----------------|----------------|----------------|
                                                                       
                                                                      
e|----------------|----------------|----------------|----------------|
b|----6-----5-----|6-----5-----6---|----9-----8-----|7-----8-----7---|
g|5-------5-----5-|----5-----5---5-|7-------7-----7-|----7-----7-----|
d|----------------|----------------|----------------|----------------|
a|----------------|----------------|----------------|----------------|
E|----------------|----------------|----------------|----------------|



/-/-/-/-/-/-/-/-/-/-/-/-/-/-/-/-/-noise-\-\-\-\-\-\-\-\-\-\-\-\-\-\-\
\-\-\-\-\-\-\-\-\-\-\-\-\-\-\-\-\-noise-/-/-/-/-/-/-/-/-/-/-/-/-/-/-/



outro (part after noise)

e|----------------|----------------|----------------|----------------|
b|----------------|----------------|----------------|----------------|
g|----------------|----------------|----------------|----------------|
d|----------------|----7-----------|----------------|----------------|
a|5---0-7\--3---6-|5-----7-3-6-5---|78887888-8-5--88|788878888-5-----|
E|----------------|----------------|----------------|----------------| 


Intro & verso x 6
chorus        x 2
Intro & verso x 2
bridge 1     x 1
bridge 2     x 1
Intro & verso x 4
chorus        x 2
Intro & verso x 2
bridge 1     x 1
solo          x 8 

------noise------

outro         x 24
-------end-------
Related for Let It All Be tab