Song name
# A B C D E F G H I J K L M N O P Q R S T U V W X Y Z

Melvins - Plethysmograph tab

-----------------------------------------------------------------------
  PLETHYSMOGRAPH - Jello Biafra and The Melvins (aka The ‘Jelvins’)
-----------------------------------------------------------------------

Tabbed By: rhymeswith suck



Guitar I (E A D G B E) – ‘Buzz Osbourne’


Intro (Feedback and Noise)

E|-------------|-------------|-------------|
B|-------------|-------------|-------------|
G|-------------|-------------|-------------|
D|-(4)---------|-(2)---------|-(4)---------|
A|-(4)---------|-(2)---------|-(4)---------|
E|-(2)---------|-(0)---------|-(2)---------|


Into Pt.2 / Chorus Riff

   (Repeat 3 Times)	
E||-------------------||----------------------------|
B||o-----------------o||----------------------------|
G||--9/11-------------||-11~--11-11----10~--10-10---|
D||--9/11--7--9--10---||-11~--11-11----10~--10-10---|
A||o-7/-9--7--9--10--o||--9~---9--9-----8~---8--8---|
E||--------5--7---8---||----------------------------|
   
   (Repeat 3 Times)	
E||-------------------||----------------------------|
B||o-----------------o||----------------------------|
G||--9/11-------------||-11~--11-11----14-14-14-*---|
D||--9/11--7--9--10---||-11~--11-11----14-14-14-*---|
A||o-7/-9--7--9--10--o||--9~---9--9----12-12-12-*---|
E||--------5--7---8---||----------------------------|


Verse 1

E|--------------------|------------------------|
B|--------------------|------------------------|
G|--------------------|------------------------|
D|-4~-4444444444444---|-4-4--4444444444444-----|
A|-4~-4444444444444---|-4-4--4444444444444-----|
E|-2~-2222222222222---|-2-2--2222222222222-----|
PM]  |-------------|        |-------------|

E|----------------------|------------------------|
B|----------------------|------------------------|
G|----------------------|------------------------|
D|-4-4--4444444444444---|-4-4--4444444444444-----|
A|-4-4--4444444444444---|-4-4--4444444444444-----|
E|-2-2--2222222222222---|-2-2--2222222222222-----|
PM]    |-------------|        |-------------|

E|----------------------|------------------------|
B|----------------------|------------------------|
G|----------------------|------------------------|
D|-4-4--4444444444444---|-4-4--4444444444444-----|
A|-4-4--4444444444444---|-4-4--4444444444444-----|
E|-2-2--2222222222222---|-2-2--2222222222222-----|
PM]    |-------------|        |-------------|

E|----------------------|----------------------/***/--------------|
B|----------------------|----------------------/***/--------------|
G|----------------------|----------------------/***/--------------|
D|-4-4--4444444444444---|-4-4--4444444444444---/***/-(PICK SLIDE)-|
A|-4-4--4444444444444---|-4-4--4444444444444---/***/--------------|
E|-2-2--2222222222222---|-2-2--2222222222222---/***/--------------|
PM]    |-------------|        |-------------|


Chorus

   (Repeat 3 Times)	
E||-------------------||----------------------------|
B||o-----------------o||----------------------------|
G||--9/11-------------||-11~--11-11----10~--10-10---|
D||--9/11--7--9--10---||-11~--11-11----10~--10-10---|
A||o-7/-9--7--9--10--o||--9~---9--9-----8~---8--8---|
E||--------5--7---8---||----------------------------|
   
   (Repeat 3 Times)	
E||-------------------||----------------------------|
B||o-----------------o||----------------------------|
G||--9/11-------------||-11~--11-11----14-14-14-*---|
D||--9/11--7--9--10---||-11~--11-11----14-14-14-*---|
A||o-7/-9--7--9--10--o||--9~---9--9----12-12-12-*---|
E||--------5--7---8---||----------------------------|


Verse 2

E|--------------------|------------------------|
B|--------------------|------------------------|
G|--------------------|------------------------|
D|-4~-4444444444444---|-4-4--4444444444444-----|
A|-4~-4444444444444---|-4-4--4444444444444-----|
E|-2~-2222222222222---|-2-2--2222222222222-----|
PM]  |-------------|        |-------------|

E|----------------------|------------------------|
B|----------------------|------------------------|
G|----------------------|------------------------|
D|-4-4--4444444444444---|-4-4--4444444444444-----|
A|-4-4--4444444444444---|-4-4--4444444444444-----|
E|-2-2--2222222222222---|-2-2--2222222222222-----|
PM]    |-------------|        |-------------|

E|----------------------|------------------------|
B|----------------------|------------------------|
G|----------------------|------------------------|
D|-4-4--4444444444444---|-4-4--4444444444444-----|
A|-4-4--4444444444444---|-4-4--4444444444444-----|
E|-2-2--2222222222222---|-2-2--2222222222222-----|
PM]    |-------------|        |-------------|

E|----------------------|------------------------|
B|----------------------|------------------------|
G|----------------------|------------------------|
D|-4-4--4444444444444---|-4-4--4444444444444-----|
A|-4-4--4444444444444---|-4-4--4444444444444-----|
E|-2-2--2222222222222---|-2-2--2222222222222-----|
PM]    |-------------|        |-------------|

E|----------------------|----------------------/***/--------------|
B|----------------------|----------------------/***/--------------|
G|----------------------|----------------------/***/--------------|
D|-4-4--4444444444444---|-4-4--4444444444444---/***/-(PICK SLIDE)-|
A|-4-4--4444444444444---|-4-4--4444444444444---/***/--------------|
E|-2-2--2222222222222---|-2-2--2222222222222---/***/--------------|
PM]    |-------------|        |-------------|


Chorus

   (Repeat 3 Times)	
E||-------------------||----------------------------|
B||o-----------------o||----------------------------|
G||--9/11-------------||-11~--11-11----10~--10-10---|
D||--9/11--7--9--10---||-11~--11-11----10~--10-10---|
A||o-7/-9--7--9--10--o||--9~---9--9-----8~---8--8---|
E||--------5--7---8---||----------------------------|
   
   (Repeat 3 Times)	
E||-------------------||----------------------------|
B||o-----------------o||----------------------------|
G||--9/11-------------||-11~--11-11----14-14-14-*---|
D||--9/11--7--9--10---||-11~--11-11----14-14-14-*---|
A||o-7/-9--7--9--10--o||--9~---9--9----12-12-12-*---|
E||--------5--7---8---||----------------------------|


Guitar Solo (With Slight Detune or Chorus Effect)-(B Minor Pentatonic)

E|--------------------------|------------------------------|
B|-7--7--7---7-5-7---12-10~-|-12--12--12--10-7--10-10--7---|
G|--------------------------|------------------------------|
D|--------------------------|------------------------------|
A|--------------------------|------------------------------|
E|--------------------------|------------------------------|

E|--------------------------|------------------------------|
B|-7--7--7---7-5-7---12-10~-|-0--3--5--7---10-10-7---------|
G|--------------------------|------------------------------|
D|--------------------------|------------------------------|
A|--------------------------|------------------------------|
E|--------------------------|------------------------------|

Or

E|-------------------7--5~--|-7---7---7---5-----5--5-------|
B|-7--7--7---7-5-7----------|----------------7--------7----|
G|--------------------------|------------------------------|
D|--------------------------|------------------------------|
A|--------------------------|------------------------------|
E|--------------------------|------------------------------|

E|--------------------7--5~-|--------------5--5------------|
B|-7--7--7---7-5-7----------|-------5--7--------7----------|
G|--------------------------|-4--7-------------------------|
D|--------------------------|------------------------------|
A|--------------------------|------------------------------|
E|--------------------------|------------------------------|


Bridge 1

E|-------------|-------------|------------|-----------------|----------|
B|-------------|-------------|------------|-----------------|----------|
G|-------------|-------------|------------|-----------------|----------|
D|---4-4-4-4-4-|-10-9--4-4-4-|-9-8--4-4-4-|-8-7--4-4--10\9\8|4~--4-4-4-|
A|---4-4-4-4-4-|-10-9--4-4-4-|-9-8--4-4-4-|-8-7--4-4--10\9\8|4~--4-4-4-|
E|---2-0-2-0-2-|--8-7--2-0-2-|-7-6--2-0-2-|-6-5--2-0---8\7\6|2~--2-0-2-|

E|-------------|------------|-----------------|----------|
B|-------------|------------|-----------------|----------|
G|-------------|------------|-----------------|----------|
D|-10-9--4-4-4-|-9-8--4-4-4-|-8-7--4-4--10\9\8|4~--4-4-4-|
A|-10-9--4-4-4-|-9-8--4-4-4-|-8-7--4-4--10\9\8|4~--4-4-4-|
E|--8-7--2-0-2-|-7-6--2-0-2-|-6-5--2-0---8\7\6|2~--2-0-2-|
PM]                                               |-----|  

E|-------------|------------|-----------------|----------|
B|-------------|------------|-----------------|----------|
G|-------------|------------|-----------------|----------|
D|-10-9--4-4-4-|-9-8--4-4-4-|-8-7--4-4--10\9\8|4~--4-4-4-|
A|-10-9--4-4-4-|-9-8--4-4-4-|-8-7--4-4--10\9\8|4~--4-4-4-|
E|--8-7--2-0-2-|-7-6--2-0-2-|-6-5--2-0---8\7\6|2~--2-0-2-|
PM]     |-----|      |-----|      |---|           |-----|

E|-------------|------------|-----------------|----------|
B|-------------|------------|-----------------|----------|
G|-------------|------------|-----------------|----------|
D|-10-9--4-4-4-|-9-8--4-4-4-|-8-7--4-4--10\9\8|4~--4-4-4-|
A|-10-9--4-4-4-|-9-8--4-4-4-|-8-7--4-4--10\9\8|4~--4-4-4-|
E|--8-7--2-0-2-|-7-6--2-0-2-|-6-5--2-0---8\7\6|2~--2-0-2-|
PM]     |-----|      |-----|      |---|           |-----|

E|-------------|------------|-----------------|----------|
B|-------------|------------|-----------------|----------|
G|-------------|------------|-----------------|----------|
D|-10-9--4-4-4-|-9-8--4-4-4-|-8-7--4-4--10\9\8|4~--4-4-4-|
A|-10-9--4-4-4-|-9-8--4-4-4-|-8-7--4-4--10\9\8|4~--4-4-4-|
E|--8-7--2-0-2-|-7-6--2-0-2-|-6-5--2-0---8\7\6|2~--2-0-2-|
PM]     |-----|      |-----|      |---|           |-----|

E|-------------|------------|-----------------|----------|
B|-------------|------------|-----------------|----------|
G|-------------|------------|-----------------|----------|
D|-10-9--4-4-4-|-9-8--4-4-4-|-8-7--4-4--10\9\8|4~~~~~~~~~|
A|-10-9--4-4-4-|-9-8--4-4-4-|-8-7--4-4--10\9\8|4~~~~~~~~~|
E|--8-7--2-0-2-|-7-6--2-0-2-|-6-5--2-0---8\7\6|2~~~~~~~~~|
PM]     |-----|      |-----|      |---|           


Bridge 2

E|---------|----------|---------|----------|
B|---------|----------|---------|----------|
G|---------|----------|---------|----------|
D|~~~(4)~~~|-7-7--2~~~|~~~(2)~~~|-7-7--4~~~|
A|~~~(4)~~~|-7-7--2~~~|~~~(2)~~~|-7-7--4~~~|
E|~~~(2)~~~|-5-5--0~~~|~~~(0)~~~|-5-5--2~~~|

E|---------|----------|---------|----------|
B|---------|----------|---------|----------|
G|---------|----------|---------|----------|
D|~~~(4)~~~|-7-7--2~~~|~~~(2)~~~|-7-7--4~~~|
A|~~~(4)~~~|-7-7--2~~~|~~~(2)~~~|-7-7--4~~~|
E|~~~(2)~~~|-5-5--0~~~|~~~(0)~~~|-5-5--2~~~|

E|---------|----------|---------|----------|
B|---------|----------|---------|----------|
G|---------|----------|---------|----------|
D|~~~(4)~~~|-7-7--2~~~|~~~(2)~~~|-7-7--4~~~|
A|~~~(4)~~~|-7-7--2~~~|~~~(2)~~~|-7-7--4~~~|
E|~~~(2)~~~|-5-5--0~~~|~~~(0)~~~|-5-5--2~~~|

E|---------|----------|---------|----------|
B|---------|----------|---------|----------|
G|---------|----------|---------|----------|
D|~~~(4)~~~|-7-7--2~~~|~~~(2)~~~|-7-7--4~~~|
A|~~~(4)~~~|-7-7--2~~~|~~~(2)~~~|-7-7--4~~~|
E|~~~(2)~~~|-5-5--0~~~|~~~(0)~~~|-5-5--2~~~|

E|---------|----------|---------|----------|
B|---------|----------|---------|----------|
G|---------|----------|---------|----------|
D|~~~(4)~~~|-7-7--2~~~|~~~(2)~~~|-7-7--4~~~|
A|~~~(4)~~~|-7-7--2~~~|~~~(2)~~~|-7-7--4~~~|
E|~~~(2)~~~|-5-5--0~~~|~~~(0)~~~|-5-5--2~~~|

E|---------|----------|---------|----------|
B|---------|----------|---------|----------|
G|---------|----------|---------|----------|
D|~~~(4)~~~|-7-7--2~~~|~~~(2)~~~|-2-3-4~~~-|
A|~~~(4)~~~|-7-7--2~~~|~~~(2)~~~|-2-3-4~~~-|
E|~~~(2)~~~|-5-5--0~~~|~~~(0)~~~|-0-1-2~~~-|


Feedback, Noise and Delay
(Randomly Upstroke F# Chord) 

E|---------|-------|-------|-------|-------|-------|----------|
B|---------|-------|-------|-------|-------|-------|----------|
G|---------|-------|-------|-------|-------|-------|----------|
D|~~~(4)~~~|---4---|---4---|---4---|---4---|---4---|---4~~~---|
A|~~~(4)~~~|---4---|---4---|---4---|---4---|---4---|---4~~~---|
E|~~~(2)~~~|---2---|---2---|---2---|---2---|---2---|---2~~~---|


Verse 3

E|----------------------|------------------------|
B|----------------------|------------------------|
G|----------------------|------------------------|
D|-4-4--4444444444444---|-4-4--4444444444444-----|
A|-4-4--4444444444444---|-4-4--4444444444444-----|
E|-2-2--2222222222222---|-2-2--2222222222222-----|
PM]    |-------------|        |-------------|

E|----------------------|------------------------|
B|----------------------|------------------------|
G|----------------------|------------------------|
D|-4-4--4444444444444---|-4-4--4444444444444-----|
A|-4-4--4444444444444---|-4-4--4444444444444-----|
E|-2-2--2222222222222---|-2-2--2222222222222-----|
PM]    |-------------|        |-------------|

E|----------------------|------------------------|
B|----------------------|------------------------|
G|----------------------|------------------------|
D|-4-4--4444444444444---|-4-4--4444444444444-----|
A|-4-4--4444444444444---|-4-4--4444444444444-----|
E|-2-2--2222222222222---|-2-2--2222222222222-----|
PM]    |-------------|        |-------------|

E|----------------------|------------------------|
B|----------------------|------------------------|
G|----------------------|------------------------|
D|-4-4--4444444444444---|-4-4--4444444444444-----|
A|-4-4--4444444444444---|-4-4--4444444444444-----|
E|-2-2--2222222222222---|-2-2--2222222222222-----|
PM]    |-------------|        |-------------|

E|----------------------|---------------------/***/--------------|
B|----------------------|---------------------/***/--------------|
G|----------------------|---------------------/***/--------------|
D|-4-4--4444444444444---|-4-4--4444444444444--/***/-(PICK SLIDE)-|
A|-4-4--4444444444444---|-4-4--4444444444444--/***/--------------|
E|-2-2--2222222222222---|-2-2--2222222222222--/***/--------------|
PM]    |-------------|        |-------------|


Final Chorus

(Repeat 3 Times)	
E||-------------------||----------------------------|
B||o-----------------o||----------------------------|
G||--9/11-------------||-11~--11-11----10~--10-10---|
D||--9/11--7--9--10---||-11~--11-11----10~--10-10---|
A||o-7/-9--7--9--10--o||--9~---9--9-----8~---8--8---|
E||--------5--7---8---||----------------------------|

(Repeat 3 Times)	
E||-------------------||----------------------------|
B||o-----------------o||----------------------------|
G||--9/11-------------||-11~--11-11----10~--10-10---|
D||--9/11--7--9--10---||-11~--11-11----10~--10-10---|
A||o-7/-9--7--9--10--o||--9~---9--9-----8~---8--8---|
E||--------5--7---8---||----------------------------|

(Repeat 3 Times)	
E||-------------------||----------------------------|
B||o-----------------o||----------------------------|
G||--9/11-------------||-11~--11-11----10~--10-10---|
D||--9/11--7--9--10---||-11~--11-11----10~--10-10---|
A||o-7/-9--7--9--10--o||--9~---9--9-----8~---8--8---|
E||--------5--7---8---||----------------------------|

(Repeat 3 Times)	
E||-------------------||----------------------------|
B||o-----------------o||----------------------------|
G||--9/11-------------||-11~--11-11----14-14-14-*---|
D||--9/11--7--9--10---||-11~--11-11----14-14-14-*---|
A||o-7/-9--7--9--10--o||--9~---9--9----12-12-12-*---|
E||--------5--7---8---||----------------------------|


Outro Guitar Solo (With Slight Detune or Chorus Effect)(B Minor Pentatonic)

E|--------------------------|------------------------------|
B|-7--7--7---7-5-7---12-10~-|-12--12--12--10-7--10-10--7---|
G|--------------------------|------------------------------|
D|--------------------------|------------------------------|
A|--------------------------|------------------------------|
E|--------------------------|------------------------------|

E|--------------------------|------------------------------|
B|-7--7--7---7-5-7---12-10~-|-0--3--5--7---10-10-7-(DELAY)-|
G|--------------------------|------------------------------|
D|--------------------------|------------------------------|
A|--------------------------|------------------------------|
E|--------------------------|------------------------------|

Or

E|-------------------7--5~--|-7---7---7---5-----5--5-------|
B|-7--7--7---7-5-7----------|----------------7--------7----|
G|--------------------------|------------------------------|
D|--------------------------|------------------------------|
A|--------------------------|------------------------------|
E|--------------------------|------------------------------|

E|--------------------7--5~-|--------------5--5------------|
B|-7--7--7---7-5-7----------|-------5--7--------7--(DELAY)-|
G|--------------------------|-4--7-------------------------|
D|--------------------------|------------------------------|
A|--------------------------|------------------------------|
E|--------------------------|------------------------------|


END
Tap to rate this tab
 
# A B C D E F G H I J K L M N O P Q R S T U V W X Y Z