Song name
# A B C D E F G H I J K L M N O P Q R S T U V W X Y Z

Melvins - Bloated Pope tab

Melvins
The Bloated Pope

tune down to C

. - palm mute

riff 1
-------------------------------------------------------------|
-------------------------------------------------------------|
-------------------------------------------------------------|
------------------------------7-----------------5--------7---|
-------------3----------------5-----------------3--------5---|
0-0---0---00-1-0-0-0---0---00----0-0-0-0-0-0-0-----0-0-3-----|
. .   .   ..   . . .   .   ..    . . . . . . .     . .

riff 2
-------------------------------------------------------------|
-------------------------------------------------------------|
-------------------------------------------------------------|
-------------------------------------------------------------|
--------------------------------555555--------555555---------|
0--0-0--3---3-33-55555556---6-66------6---6-66------6-5-6-3--|
Tap to rate this tab
 
# A B C D E F G H I J K L M N O P Q R S T U V W X Y Z