Song name
# A B C D E F G H I J K L M N O P Q R S T U V W X Y Z

Melvins - Pigs Of The Roman Empire tab

Help us improve GuitareTab! Take a short survey!
"Pigs of the Roman Empire" by The Melvins
*Live Version*

tune E string down to D


First Riff
E--------------------------------------------------------------|
B--------------------------------------------------------------|
G--------------------------------------------------------------|
d--------------------------------------------------------------|
a-------1-3-------------------1---gradually bend---------------|
D-0---5-----3---5b--0-3-5-0------------------------------------|


2nd Riff
E---------------------------------|
B---------------------------------|
G---------------------------------|
d---------------------------------|
a-----------------------3-----5---|
D-0-0-0-0-0-0-0-0-0-0-0---5-3-----|
  . . . . . . . . . . .

E----------------------------------------------|
B----------------------------------------------|
G----------------------------------------------|
d---------11b------------3---------------------|
a--------------------------5-------------------|
D-0-0-0-0-------0-0-0-0------0-0-3-5---5-3-5-3-|
  . . . .       . . . .      . .
Related for Pigs Of The Roman Empire tab