Guitaretab - guitar tabs
Song name
# A B C D E F G H I J K L M N O P Q R S T U V W X Y Z

Melvins - Harry Lauders Walking Stick Tree tab

ok this isnt the whole song.. its really just playing around with these little bits for 
whole song.
[ Tab from: http://www.guitaretab.com/m/melvins/64755.html ]
e|----0--------0-3-2-0-5-----0-----0-3----3-2-0-----------0---|
b|-1-----1--1-------------1-----1-------1-1-1-1--1-1-1-1------|
g|-2-----2--2-------------2-----2-------2-2-2-2--2-2-2-2------|
d|-2-----2--2-------------2-----2-------2-2-2-2--2-2-2-2------|
a|------------------------------------------------------------|
e|------------------------------------------------------------|

e|---------------------------------|
b|-----------1------------------1--|
g|-4-5-4-2---2--0---0--4-5-4-2--2--|
d|-----------2----2-------------2--|
a|---------------------------------|
e|---------------------------------|
Related for Harry Lauders Walking Stick Tree tab
Advertisement will be closed in 10 seconds