Song name
# A B C D E F G H I J K L M N O P Q R S T U V W X Y Z

Melvins - Matt-alec tab

----------------------------------------------------------------------------
			     Matt-Alec - Melvins
----------------------------------------------------------------------------
Tabbed by: CrybabyJerkins
Email: CrybabyJerkins@gmail.com

Tuning: Standard (EADGBe)

e|---------------------------------------------------------------------------|
B|---------------------------------------------------------------------------|
G|---------------------------------------------------------------------------|
D|--6-6-6--7-7-7-7-7--6-6-6--7-7-7-7/6---------------------------------------|
A|--6-6-6--7-7-7-7-7--6-6-6--7-7-7-7/6--x7-----------------------------------|
E|--4-4-4--5-5-5-5-5--4-4-4--5-5-5-5/4---------------------------------------|
  PM-------------------------------------------------------------------------|

e|---------------------------------------------------------------------------|
B|---------------------------------------------------------------------------|
G|---------------------------------------------------------------------------|
D|--6-6-6--7-7-7-7-7--6-6-6--7--5--2-2-2-2-2--4-4-4--5-5--7--5--2-2-2-2-2----|
A|--6-6-6--7-7-7-7-7--6-6-6--7--5--2-2-2-2-2--4-4-4--5-5--7--5--2-2-2-2-2----|
E|--4-4-4--5-5-5-5-5--4-4-4--5--3--0-0-0-0-0--2-2-2--3-3--5--3--0-0-0-0-0----|
  PM-------------------------------------------------------------------------|

e|--------------------------------------------------------------------------|
B|--------------------------------------------------------------------------|
G|--7-7-7------------------------------------------------7-7-7--------------|
D|--7-7-7--7--5--2-2-2-2-2--4-4-4--5-5--7--5--2-2-2-2-2--7-7-7--------------|
A|--5-5-5--7--5--2-2-2-2-2--4-4-4--5-5--7--5--2-2-2-2-2--5-5-5--7~----------|
E|---------5--3--0-0-0-0-0--2-2-2--3-3--5--3--0-0-0-0-0---------------------|

e|---------------------------------------------------------------------------|
B|---------------------------------------------------------------------------|
G|---------------------------------------------------------------------------|
D|--6-6-6--7-7-7-7-7--6-6-6--7-7-7-7/6---------------------------------------|
A|--6-6-6--7-7-7-7-7--6-6-6--7-7-7-7/6--x3-----------------------------------|
E|--4-4-4--5-5-5-5-5--4-4-4--5-5-5-5/4---------------------------------------|
  PM-------------------------------------------------------------------------|

e|---------------------------------------------------------------------------|
B|---------------------------------------------------------------------------|
G|---------------------------------------------------------------------------|
D|--6-6-6--7-7-7-7-7--6-6-6--7--5--2-2-2-2-2--4-4-4--5-5--7--5--2-2-2-2-2----|
A|--6-6-6--7-7-7-7-7--6-6-6--7--5--2-2-2-2-2--4-4-4--5-5--7--5--2-2-2-2-2----|
E|--4-4-4--5-5-5-5-5--4-4-4--5--3--0-0-0-0-0--2-2-2--3-3--5--3--0-0-0-0-0----|
  PM-------------------------------------------------------------------------|
e|---------------------------------------------------------------------------|
B|---------------------------------------------------------------------------|
G|--7-7-7------------------------------------------------7-7-7---------------|
D|--7-7-7--7--5--2-2-2-2-2--4-4-4--5-5--7--5--2-2-2-2-2--7-7-7---------------|
A|--5-5-5--7--5--2-2-2-2-2--4-4-4--5-5--7--5--2-2-2-2-2--5-5-5--7~-----------|
E|---------5--3--0-0-0-0-0--2-2-2--3-3--5--3--0-0-0-0-0----------------------|


e|--------------------------------------------------------------------------|
B|--------------------------------------------------------------------------|
G|--------------------------------------------------------------------------|
D|--7-7-7-7-7-7-7--9-9-9--10-10--12--10-7-7-7-7-7-7--10-10-10--5-5--6-------|
A|--7-7-7-7-7-7-7--9-9-9--10-10--12--10-7-7-7-7-7-7--10-10-10--5-5--6-------|
E|--5-5-5-5-5-5-5--7-7-7--8--8---10--8--5-5-5-5-5-5--8--8--8---3-3--4-------|

e|--------------------------------------------------------------------------|
B|--------------------------------------------------------------------------|
G|-----------------------------------------------------------5--7~----------|
D|--7-7-7-7-7-7-7--9-9-9--10-10--12--10-7-7-7-7-7-7-7-7-7-7-----------------|
A|--7-7-7-7-7-7-7--9-9-9--10-10--12--10-7-7-7-7-7-7-7-7-7-7-----------------|
E|--5-5-5-5-5-5-5--7-7-7--8--8---10--8--5-5-5-5-5-5-5-5-5-5-----------------|

e|---------------------------------------------------------------------------|
B|---------------------------------------------------------------------------|
G|---------------------------------------------------------------------------|
D|--6-6-6--7-7-7-7-7--6-6-6--7-7-7-7/6---------------------------------------|
A|--6-6-6--7-7-7-7-7--6-6-6--7-7-7-7/6--x3-----------------------------------|
E|--4-4-4--5-5-5-5-5--4-4-4--5-5-5-5/4---------------------------------------|
  PM-------------------------------------------------------------------------|

e|---------------------------------------------------------------------------|
B|---------------------------------------------------------------------------|
G|---------------------------------------------------------------------------|
D|--6-6-6--7-7-7-7-7--6-6-6--7--5--2-2-2-2-2--4-4-4--5-5--7--5--2-2-2-2-2----|
A|--6-6-6--7-7-7-7-7--6-6-6--7--5--2-2-2-2-2--4-4-4--5-5--7--5--2-2-2-2-2----|
E|--4-4-4--5-5-5-5-5--4-4-4--5--3--0-0-0-0-0--2-2-2--3-3--5--3--0-0-0-0-0----|
  PM-------------------------------------------------------------------------|
e|---------------------------------------------------------------------------|
B|---------------------------------------------------------------------------|
G|--7-7-7------------------------------------------------7-7-7---------------|
D|--7-7-7--7--5--2-2-2-2-2--4-4-4--5-5--7--5--2-2-2-2-2--7-7-7---------------|
A|--5-5-5--7--5--2-2-2-2-2--4-4-4--5-5--7--5--2-2-2-2-2--5-5-5--7~-----------|
E|---------5--3--0-0-0-0-0--2-2-2--3-3--5--3--0-0-0-0-0----------------------|

e|--------------------------------------------------------------------------|
B|--------------------------------------------------------------------------|
G|--------------------------------------------------------------------------|
D|--7-7-7-7-7-7-7--9-9-9--10-10--12--10-7-7-7-7-7-7--10-10-10--5-5--6-------|
A|--7-7-7-7-7-7-7--9-9-9--10-10--12--10-7-7-7-7-7-7--10-10-10--5-5--6-------|
E|--5-5-5-5-5-5-5--7-7-7--8--8---10--8--5-5-5-5-5-5--8--8--8---3-3--4-------|

e|--------------------------------------------------------------------------|
B|--------------------------------------------------------------------------|
G|-----------------------------------------------------------5--7~----------|
D|--7-7-7-7-7-7-7--9-9-9--10-10--12--10-7-7-7-7-7-7-7-7-7-7-----------------|
A|--7-7-7-7-7-7-7--9-9-9--10-10--12--10-7-7-7-7-7-7-7-7-7-7-----------------|
E|--5-5-5-5-5-5-5--7-7-7--8--8---10--8--5-5-5-5-5-5-5-5-5-5-----------------|

e|---------------------------------------------------------------------------|
B|---------------------------------------------------------------------------|
G|---------------------------------------------------------------------------|
D|--6-6-6--7-7-7-7-7--6-6-6--7-7-7-7/6---------------------------------------|
A|--6-6-6--7-7-7-7-7--6-6-6--7-7-7-7/6--x4-----------------------------------|
E|--4-4-4--5-5-5-5-5--4-4-4--5-5-5-5/4---------------------------------------|

| PM palm mute
| /  slide up
| \  slide down
| h  hammer-on
| p  pull-off
| ~  vibrato
| +  harmonic
| x  Mute note
============================================================================
Tap to rate this tab
# A B C D E F G H I J K L M N O P Q R S T U V W X Y Z