Song name
# A B C D E F G H I J K L M N O P Q R S T U V W X Y Z

Melvins - Set Me Straight tab

Drop D Tuning

Intro:
E---------------------------------------------------------------------------|
B---------------------------------------------------------------------------|
G---------------------------------------------------------------------------|
D---------------------------------------------------------------------------|
A--7-7-7-8-8-8-8-7-7-7-8-8-8-8-8-7-7-7-8-8-8-8-8-7-7-7-8-8-8-8-8------------|
E--7-7-7-7-7-7-7-7-7-7-7-7-7-7-7-7-7-7-7-7-7-7-7-7-7-7-7-7-7-7-7------------|

Verse:
E---------------------------------------------------------------------------|
B---------------------------------------------------------------------------|
G---------------------------------------------------------------------------|
D---------------------------------------------------------------------------|
A--4-5--5-6-5-4--4-4-5--5-6-5-4--4--7--7--7-7-7-7--7--7-7-7-----------------|
E--4-5--5-6-5-4--4-4-5--5-6-5-4--4--7--7--7-7-7-7--7--7-7-7-----------------|

Chorus:
E--------------------------------------------------------------------------|
B--------------------------------------------------------------------------|
G--------------------------------------------------------------------------|
D--------------------------------------------------------------------------|
A--10--10--10-10-10-10---10--10-11-11-11--6--6--6-6-6-6--6--11-11-11-------|
E--10--10--10-10-10-10---10--10-11-11-11--6--6--6-6-6-6--6--11-11-11-------|

E------------------------------------------------------|
B------------------------------------------------------|
G------------------------------------------------------|
D------------------------------------------------------|
A--10--10--10-10-10-10--10-11-11-11--6--6--6-6-6-6--6--|
E--10--10--10-10-10-10--10-11-11-11--6--6--6-6-6-6--6--|
Tap to rate this tab
# A B C D E F G H I J K L M N O P Q R S T U V W X Y Z