Song name
# A B C D E F G H I J K L M N O P Q R S T U V W X Y Z

Melvins - Heater Moves And Eyes tab

Heater Moves And Eyes
The Melvins

Listen to the song for order

 Riff 1
|---------------------------------|---------------------------------|
|---------------------------------|---------------------------------|
|---------------------------------|---------------------------------|
|---------------------------------|---------------------------------|
|-2-------2---2-2-8---7-----------|-8---7-----------8---7-----------|
|-0-------0---0-0-6---5---0-0-0-0-|-6---5---0-0-0-0-6---5-----------|

 Riff 2
|---------------------------------|---------------------------------|
|---------------------------------|---------------------------------|
|---------------------------------|---------------------------------|
|------------------------5---6----|---------------------------------|
|-2------2---2-2-4---5---3---4----|-6-------6---6-6-0-------1---0---|
|-0------0---0-0-2---3-0----------|-4-------4---4-4-----4-----------|

|---------------------------------|---------------------------------|
|---------------------------------|---------------------------------|
|-------------------------------9-|---9-----9---9---9---------------|
|-----------------------------9-9-|---9-----9---9---9---------------|
|-----0-----------2---2---7---7---|-7---7---7---7---7---8---7---7---|
|-4-------2---3---0---0---0---0---|-0---0---0---0---0---6---5---5---|

 Verse
|---------------------------------|---------------------------------|
|---------------------------------|---------------------------------|
|---------------------------------|---------------------------------|
|---------------------------------|---------------------------------|
|-4---2---4---2---4---2---2---4---|-2---2---2---4-------8---7---7---|
|-2---0---2---0---2---0---0---2---|-0---0---0---2---0---6---5---5---|

 Chorus
|---------------------------------|---------------------------------|
|---------------------------------|---------------------------------|
|---------------------------------|---------------------------------|
|---------------------------------|---------7-----------------------|
|-2-------2---2-2-8---7---2-2-2-2-|-8---7---5---2-2-2-2-8---7---2---|
|-0-------0---0-0-6---5---0-0-0-0-|-6---5-------0-0-0-0-6---5---0---|

 Solo
|---------------------------------|---------------------------------|
|---------------------------------|---------------------------------|
|---------7-7-7b--7b--7b--7b--7b--|-7b--7b--7b--7b--7b--7b--7b--7b--|
|-----5-7-7-7-7b--7b--7b--7b--7b--|-7b--7b--7b--7b--7b--7b--7b--7b--|
|-5-7-----------------------------|---------------------------------|
|---------------------------------|---------------------------------|

 Bridge Intro
|---------------------------------|---------------------------------|
|---------------------------------|---------------------------------|
|---------------------------------|---------------------------------|
|---------------------------------|---------------------------------|
|-2-------2---4-------2---4---5---|-7-------7---2-------2---2---2---|
|-0-------0---2-------0---2---3---|-5-------5---0-------0---0---0---|

|---------------------------------|---------------------------------|
|---------------------------------|---------------------------------|
|---------------------------------|---------------------------------|
|---------------------------------|---------------------------------|
|-2---2---2---2---2---2---2---2---|-2---2---2---2---2---3---2---5---|
|-0---0---0---0---0---0---0---0---|-0---0---0---0---0---1---0---3---|

 Bridge Riff
|---------------------------------|---------------------------------|
|---------------------------------|---------------------------------|
|---------------------------------|---------------------------------|
|---------------------------------|---------------------------------|
|-2-------2---4-------2---4---5---|-7-------7---2-------3---2---5---|
|-0-------0---2-------0---2---3---|-5-------5---0-------1---0-0-3---|

 Ending
|---------------------------------|---------------------------------|
|---------------------------------|---------------------------------|
|---------------------------------|---------------------------------|
|---------------------------------|---------------------------------|
|---------------------------------|---------------------------------|
|-5---5---5---5---5---5---5---5---|-6---6---6---6---6---6---6---6---|

|---------------------------------|---------------------------------|
|---------------------------------|---------------------------------|
|---------------------------------|---------------------------------|
|---------------------------------|---------------------------------|
|---------------------8---9---8---|-8---8---8-8-8-8-8---8---9---8---|
|-6---6---6---6---6---6---7---6---|-6---6---6-6-6-6-6---6---7---6---|

Tap to rate this tab
 
# A B C D E F G H I J K L M N O P Q R S T U V W X Y Z