Song name
# A B C D E F G H I J K L M N O P Q R S T U V W X Y Z

Melys - Chinese Whispers tab

Help us improve GuitareTab! Take a short survey!
Artist: Melys   http://www.melys.co.uk/
Track: Chinese Whispers
Album: Suikerspin
Tabber: Woodshed


INTRO


    A
e|------------------------|----------------------------------------------|
B|-------5-----5---5------|-----------5-------5---5----------------------|
G|----6------6------------|--------6-------6-----------------------------|
D|--7------7-----7--------|-----7-------7-------7------------------------|
A|------------------------|----------------------------------------------|
E|------------------------|----------------------------------------------|

   C#m
e|--------4------4---4-------|--------4-------4---4----------------------|
B|-----5------5--------------|------5------5-----------------------------|
G|--6------6-------6---------|----6-----6-------6------------------------|
D|---------------------------|-------------------------------------------|
A|---------------------------|-------------------------------------------|
E|---------------------------|-------------------------------------------|

      D
e|--------------------------|--------------------------------------------|
B|--------7----7----7-------|---------7----7---7-------------------------|
G|------7----7--------------|-------7----7-------------------------------|
D|----7----7-----7----------|-----7----7-----7---------------------------|
A|--------------------------|--------------------------------------------|
E|--------------------------|--------------------------------------------|

   A
e|------------------------|----------------------------------------------|
B|-------5-----5---5------|-----------5-------5--------------------------|
G|----6------6------------|--------6-------6----6------------------------|
D|--7------7-----7--------|-----7-------7---------7----------------------|
A|------------------------|----------------------------------------------|
E|------------------------|----------------------------------------------|


VERSE 1

A
We met in the snow

  C#m
Beneath the Pont-y-Pair

           D
Trips into other towns

          A
Weekends away

A
Held hands in the sun

      C#m
Where no one knows our names

             D
Oblivious to everyone

       A
But ourselves


BRIDGE

C
Have you seen her? (I heard she wants it)

G
Have you seen her? (I think she likes it)

C                                       G
Have you seen her, I think she wants it bad


CHORUS 

                      F
And I haven't got the time

                       C
To try and change your mind

         G
About my foolishness

                   F
So it only goes to show

                      C
You thrive on picking holes 

         G
In other people's lives

             F
Everything I do

                  C
Seems to make the news

           G
I hear you whispering

                      F
For your sake not for mine

                      C
I hope one day you'll find

              G
Just what I'm feeling like


VERSE 2

A
In cover of dark

   C#m
We drove through lonely streets

              D
Too ill for a takeaway

                 A
Parked up by the beach

A
Sneaking home about three

        C#m
Someone always saw the car

                D
A love scene on centre stage

          A
Real live TV


BRIDGE

C
Have you seen them? (And all they do)

G
Have you seen them? (I've heard they're screwing)

C                                      G
Have you seen them, I hope it all goes bad


CHORUS 

                      F
And I haven't got the time

                       C
To try and change your mind

         G
About my foolishness

                   F
So it only goes to show

                      C
You thrive on picking holes 

         G
In other people's lives

             F
Everything I do

                  C
Seems to make the news

           G
I hear you whispering

                      F
For your sake not for mine

                      C
I hope one day you'll find

              G
Just what I'm feeling like


SOLO

    F              C          G
e|-------------------------------------------------------------------------|
B|---------------------------------------/13-12----------------------------|
G|---/10-----9-10-/12----9-10-/12------------------14-12-------------------|
D|-------------------------------------------------------------------------|
A|-------------------------------------------------------------------------|
E|-------------------------------------------------------------------------|

      F              C          G
e|-------------------------------------------------------------------------|
B|-------------------------------------------------------------------------|
G|---/10-------9-10-/12----9-10-/12----------------------------------------|
D|-------------------------------------------------------------------------|
A|-------------------------------------------------------------------------|
E|-------------------------------------------------------------------------|


CHORUS

             F
Everything I do

                  C
Seems to make the news

           G
I hear you whispering

               F
Everything you see

                C
Always needs to be

             G           F
It's Chinese whispering
Related for Chinese Whispers tab