Song name
# A B C D E F G H I J K L M N O P Q R S T U V W X Y Z

Members - Cirlce Of Friends tab

 This song is really easy
Standard Tuning

Guitar One
E------------------|
B------------------|
G--------0---------|
D-----2----------0-|  repeat throughout whole song
A-3-3----------2---|
E----------3-3-----|

Guitar Two

E-3-3-3-3--3-3-3--2-2-2-2--2-2-2-|
B-0-0-0-0--0-0-0--3-3-3-3--3-3-3-|
G-0-0-0-0--0-0-0--2-2-2-2--2-2-2-|
D-0-0-0-0--0-0-0--0-0-0-0--0-0-0-| repeat tthroughout whole song
A-2-2-2-2--2-2-2-----------------|
E-3-3-3-3--3-3-3-----------------|
Tap to rate this tab
 
# A B C D E F G H I J K L M N O P Q R S T U V W X Y Z